ISO-10303-21;
HEADER;
/* Generated by software containing ST-Developer
 * from STEP Tools, Inc. (www.steptools.com) 
 */

FILE_DESCRIPTION(
/* description */ ('Alibre Inc.'),
/* implementation_level */ '2;1');

FILE_NAME(
/* name */ 'export-850A5E91-FF5B-4DCF-B329-204470F4947B',
/* time_stamp */ '2025-04-17T13:28:55+08:00',
/* author */ (''),
/* organization */ (''),
/* preprocessor_version */ 'ST-DEVELOPER v17',
/* originating_system */ 'Alibre',
/* authorisation */ '');

FILE_SCHEMA (('CONFIG_CONTROL_DESIGN'));
ENDSEC;

DATA;
#10=MECHANICAL_CONTEXT('detailed design',#18,'mechanical');
#11=PRODUCT_RELATED_PRODUCT_CATEGORY('detail','',(#98));
#12=CC_DESIGN_SECURITY_CLASSIFICATION(#14,(#97));
#13=SECURITY_CLASSIFICATION_LEVEL('unclassified');
#14=SECURITY_CLASSIFICATION('name','Security for version',#13);
#15=SHAPE_DEFINITION_REPRESENTATION(#16,#321);
#16=PRODUCT_DEFINITION_SHAPE('','DefinitionDesc',#96);
#17=APPLICATION_PROTOCOL_DEFINITION('AP definition status',
'config_control_design',1994,#18);
#18=APPLICATION_CONTEXT(
'control the configuration of three dimensional design');
#19=DESIGN_CONTEXT('detailed design',#18,'design');
#20=PERSON_AND_ORGANIZATION_ROLE('creator');
#21=PERSON_AND_ORGANIZATION_ROLE('classification_officer');
#22=PERSON_AND_ORGANIZATION_ROLE('creator');
#23=PERSON_AND_ORGANIZATION_ROLE('design_supplier');
#24=PERSON_AND_ORGANIZATION_ROLE('design_owner');
#25=CC_DESIGN_PERSON_AND_ORGANIZATION_ASSIGNMENT(#57,#20,(#96));
#26=CC_DESIGN_PERSON_AND_ORGANIZATION_ASSIGNMENT(#60,#21,(#14));
#27=CC_DESIGN_PERSON_AND_ORGANIZATION_ASSIGNMENT(#61,#22,(#97));
#28=CC_DESIGN_PERSON_AND_ORGANIZATION_ASSIGNMENT(#62,#23,(#97));
#29=CC_DESIGN_PERSON_AND_ORGANIZATION_ASSIGNMENT(#63,#24,(#98));
#30=DATE_TIME_ROLE('creation_date');
#31=DATE_TIME_ROLE('classification_date');
#32=CC_DESIGN_DATE_AND_TIME_ASSIGNMENT(#86,#30,(#96));
#33=CC_DESIGN_DATE_AND_TIME_ASSIGNMENT(#89,#31,(#14));
#34=CC_DESIGN_APPROVAL(#93,(#96));
#35=CC_DESIGN_APPROVAL(#94,(#97));
#36=CC_DESIGN_APPROVAL(#95,(#14));
#37=APPROVAL_PERSON_ORGANIZATION(#56,#93,#64);
#38=APPROVAL_PERSON_ORGANIZATION(#58,#94,#65);
#39=APPROVAL_PERSON_ORGANIZATION(#59,#95,#66);
#40=ORGANIZATION('DEFINITION_APPROVEDBY_ORG_ID',
'DEFINITION_APPROVEDBY_ORG_NAME','DEFINITION_APPROVEDBY_ORG_DESCR');
#41=ORGANIZATION('DEF_CREATOR_ORG_ID','DEF_CREATOR_ORG_NAME',
'DEF_CREATOR_ORG_DESCR');
#42=ORGANIZATION('APPROVEDBY_ORG_ID','APPROVEDBY_ORG_NAME',
'APPROVEDBY_ORG_DESCR');
#43=ORGANIZATION('SECURITY_APPROVEDBY_ORG_ID',
'SECURITY_APPROVEDBY_ORG_NAME','SECURITY_APPROVEDBY_ORG_DESCR');
#44=ORGANIZATION('CLASSOFFICER_ORG_ID','CLASSOFFICER_ORG_NAME',
'CLASSOFFICER_ORG_DESCR');
#45=ORGANIZATION('CREATOR_ORG_ID','CREATOR_ORG_NAME',
'CREATOR_ORG_DESCR');
#46=ORGANIZATION('SUPPLIER_ORG_ID','SUPPLIER_ORG_NAME',
'SUPPLIER_ORG_DESCR');
#47=ORGANIZATION('OWNER_ORG_ID','OWNER_ORG_NAME','OWNER_ORG_DESCR');
#48=PERSON('DEFINITION_approverID','DEFINITION_APPROVEDBY_LASTNAME',
'DEFINITION_APPROVEDBY_FIRSTNAME',$,$,$);
#49=PERSON('DEF_createrID','DEF_CREATOR_LASTNAME',
'DEF_CREATOR_FIRSTNAME',$,$,$);
#50=PERSON('approverID','APPROVEDBY_LASTNAME','APPROVEDBY_FIRSTNAME',$,
$,$);
#51=PERSON('SECURITY_approverID','SECURITY_LASTNAME',
'SECURITY_APPROVEDBY_FIRSTNAME',$,$,$);
#52=PERSON('classifierID','CLASSOFFICER_LASTNAME',
'CLASSOFFICER_FIRSTNAME',$,$,$);
#53=PERSON('createrID','CREATOR_LASTNAME','CREATOR_FIRSTNAME',$,$,$);
#54=PERSON('supplierID','SUPPLIER_LASTNAME','SUPPLIER_FIRSTNAME',$,$,$);
#55=PERSON('ownerID','OWNER_LASTNAME','OWNER_FIRSTNAME',$,$,$);
#56=PERSON_AND_ORGANIZATION(#48,#40);
#57=PERSON_AND_ORGANIZATION(#49,#41);
#58=PERSON_AND_ORGANIZATION(#50,#42);
#59=PERSON_AND_ORGANIZATION(#51,#43);
#60=PERSON_AND_ORGANIZATION(#52,#44);
#61=PERSON_AND_ORGANIZATION(#53,#45);
#62=PERSON_AND_ORGANIZATION(#54,#46);
#63=PERSON_AND_ORGANIZATION(#55,#47);
#64=APPROVAL_ROLE('definition_approval');
#65=APPROVAL_ROLE('version_approval');
#66=APPROVAL_ROLE('security_approval');
#67=APPROVAL_DATE_TIME(#85,#93);
#68=APPROVAL_DATE_TIME(#87,#94);
#69=APPROVAL_DATE_TIME(#88,#95);
#70=COORDINATED_UNIVERSAL_TIME_OFFSET(8,0,.AHEAD.);
#71=COORDINATED_UNIVERSAL_TIME_OFFSET(8,0,.AHEAD.);
#72=COORDINATED_UNIVERSAL_TIME_OFFSET(8,0,.AHEAD.);
#73=COORDINATED_UNIVERSAL_TIME_OFFSET(8,0,.AHEAD.);
#74=COORDINATED_UNIVERSAL_TIME_OFFSET(8,0,.AHEAD.);
#75=LOCAL_TIME(17,13,57.,#70);
#76=LOCAL_TIME(17,13,57.,#71);
#77=LOCAL_TIME(17,13,57.,#72);
#78=LOCAL_TIME(17,13,57.,#73);
#79=LOCAL_TIME(17,13,57.,#74);
#80=CALENDAR_DATE(2025,27,3);
#81=CALENDAR_DATE(2025,27,3);
#82=CALENDAR_DATE(2025,27,3);
#83=CALENDAR_DATE(2025,27,3);
#84=CALENDAR_DATE(2025,27,3);
#85=DATE_AND_TIME(#80,#75);
#86=DATE_AND_TIME(#81,#76);
#87=DATE_AND_TIME(#82,#77);
#88=DATE_AND_TIME(#83,#78);
#89=DATE_AND_TIME(#84,#79);
#90=APPROVAL_STATUS('not_yet_approved');
#91=APPROVAL_STATUS('not_yet_approved');
#92=APPROVAL_STATUS('not_yet_approved');
#93=APPROVAL(#90,'defintion approval');
#94=APPROVAL(#91,'version approval');
#95=APPROVAL(#92,'security approval');
#96=PRODUCT_DEFINITION('DefinitionID','DefinitionDesc',#97,#19);
#97=PRODUCT_DEFINITION_FORMATION_WITH_SPECIFIED_SOURCE(
'PRODUCT_VERSION_ID','PRODUCT_VERSION_DESCR',#98,.NOT_KNOWN.);
#98=PRODUCT('','5500','',(#10));
#99=(
LENGTH_UNIT()
NAMED_UNIT(*)
SI_UNIT(.CENTI.,.METRE.)
);
#100=(
NAMED_UNIT(*)
PLANE_ANGLE_UNIT()
SI_UNIT($,.RADIAN.)
);
#101=(
NAMED_UNIT(*)
SI_UNIT($,.STERADIAN.)
SOLID_ANGLE_UNIT()
);
#102=UNCERTAINTY_MEASURE_WITH_UNIT(LENGTH_MEASURE(1.E-6),#99,
'DISTANCE_ACCURACY_VALUE',
'Maximum model space distance between geometric entities at asserted c
onnectivities');
#103=(
GEOMETRIC_REPRESENTATION_CONTEXT(3)
GLOBAL_UNCERTAINTY_ASSIGNED_CONTEXT((#102))
GLOBAL_UNIT_ASSIGNED_CONTEXT((#101,#100,#99))
REPRESENTATION_CONTEXT('ID1','3D')
);
#104=PLANE('',#229);
#105=PLANE('',#231);
#106=PLANE('',#235);
#107=PLANE('',#239);
#108=PLANE('',#243);
#109=CYLINDRICAL_SURFACE('',#227,11.415);
#110=CYLINDRICAL_SURFACE('',#233,10.0515);
#111=CYLINDRICAL_SURFACE('',#237,14.);
#112=CYLINDRICAL_SURFACE('',#241,21.5);
#113=CYLINDRICAL_SURFACE('',#245,14.9875);
#114=VERTEX_POINT('',#248);
#115=VERTEX_POINT('',#250);
#116=VERTEX_POINT('',#253);
#117=VERTEX_POINT('',#256);
#118=VERTEX_POINT('',#259);
#119=VERTEX_POINT('',#262);
#120=VERTEX_POINT('',#265);
#121=VERTEX_POINT('',#268);
#122=VERTEX_POINT('',#271);
#123=VERTEX_POINT('',#274);
#124=VERTEX_POINT('',#277);
#125=CIRCLE('',#225,11.415);
#126=CIRCLE('',#226,12.015);
#127=CIRCLE('',#228,11.415);
#128=CIRCLE('',#230,14.9875);
#129=CIRCLE('',#232,10.0515);
#130=CIRCLE('',#234,10.0515);
#131=CIRCLE('',#236,14.);
#132=CIRCLE('',#238,14.);
#133=CIRCLE('',#240,21.5);
#134=CIRCLE('',#242,21.5);
#135=CIRCLE('',#244,14.9875);
#136=EDGE_CURVE('',#114,#114,#125,.T.);
#137=EDGE_CURVE('',#115,#115,#126,.T.);
#138=EDGE_CURVE('',#116,#116,#127,.T.);
#139=EDGE_CURVE('',#117,#117,#128,.T.);
#140=EDGE_CURVE('',#118,#118,#129,.T.);
#141=EDGE_CURVE('',#119,#119,#130,.T.);
#142=EDGE_CURVE('',#120,#120,#131,.T.);
#143=EDGE_CURVE('',#121,#121,#132,.T.);
#144=EDGE_CURVE('',#122,#122,#133,.T.);
#145=EDGE_CURVE('',#123,#123,#134,.T.);
#146=EDGE_CURVE('',#124,#124,#135,.T.);
#147=ORIENTED_EDGE('',*,*,#136,.T.);
#148=ORIENTED_EDGE('',*,*,#137,.T.);
#149=ORIENTED_EDGE('',*,*,#138,.T.);
#150=ORIENTED_EDGE('',*,*,#136,.F.);
#151=ORIENTED_EDGE('',*,*,#139,.T.);
#152=ORIENTED_EDGE('',*,*,#137,.F.);
#153=ORIENTED_EDGE('',*,*,#138,.F.);
#154=ORIENTED_EDGE('',*,*,#140,.F.);
#155=ORIENTED_EDGE('',*,*,#141,.F.);
#156=ORIENTED_EDGE('',*,*,#140,.T.);
#157=ORIENTED_EDGE('',*,*,#142,.F.);
#158=ORIENTED_EDGE('',*,*,#141,.T.);
#159=ORIENTED_EDGE('',*,*,#143,.F.);
#160=ORIENTED_EDGE('',*,*,#142,.T.);
#161=ORIENTED_EDGE('',*,*,#144,.F.);
#162=ORIENTED_EDGE('',*,*,#143,.T.);
#163=ORIENTED_EDGE('',*,*,#145,.F.);
#164=ORIENTED_EDGE('',*,*,#144,.T.);
#165=ORIENTED_EDGE('',*,*,#146,.F.);
#166=ORIENTED_EDGE('',*,*,#145,.T.);
#167=ORIENTED_EDGE('',*,*,#139,.F.);
#168=ORIENTED_EDGE('',*,*,#146,.T.);
#169=EDGE_LOOP('',(#147));
#170=EDGE_LOOP('',(#148));
#171=EDGE_LOOP('',(#149));
#172=EDGE_LOOP('',(#150));
#173=EDGE_LOOP('',(#151));
#174=EDGE_LOOP('',(#152));
#175=EDGE_LOOP('',(#153));
#176=EDGE_LOOP('',(#154));
#177=EDGE_LOOP('',(#155));
#178=EDGE_LOOP('',(#156));
#179=EDGE_LOOP('',(#157));
#180=EDGE_LOOP('',(#158));
#181=EDGE_LOOP('',(#159));
#182=EDGE_LOOP('',(#160));
#183=EDGE_LOOP('',(#161));
#184=EDGE_LOOP('',(#162));
#185=EDGE_LOOP('',(#163));
#186=EDGE_LOOP('',(#164));
#187=EDGE_LOOP('',(#165));
#188=EDGE_LOOP('',(#166));
#189=EDGE_LOOP('',(#167));
#190=EDGE_LOOP('',(#168));
#191=FACE_BOUND('',#169,.T.);
#192=FACE_BOUND('',#170,.T.);
#193=FACE_BOUND('',#171,.T.);
#194=FACE_BOUND('',#172,.T.);
#195=FACE_BOUND('',#173,.T.);
#196=FACE_BOUND('',#174,.T.);
#197=FACE_BOUND('',#175,.T.);
#198=FACE_BOUND('',#176,.T.);
#199=FACE_BOUND('',#177,.T.);
#200=FACE_BOUND('',#178,.T.);
#201=FACE_BOUND('',#179,.T.);
#202=FACE_BOUND('',#180,.T.);
#203=FACE_BOUND('',#181,.T.);
#204=FACE_BOUND('',#182,.T.);
#205=FACE_BOUND('',#183,.T.);
#206=FACE_BOUND('',#184,.T.);
#207=FACE_BOUND('',#185,.T.);
#208=FACE_BOUND('',#186,.T.);
#209=FACE_BOUND('',#187,.T.);
#210=FACE_BOUND('',#188,.T.);
#211=FACE_BOUND('',#189,.T.);
#212=FACE_BOUND('',#190,.T.);
#213=ADVANCED_FACE('',(#191,#192),#318,.F.);
#214=ADVANCED_FACE('',(#193,#194),#109,.F.);
#215=ADVANCED_FACE('',(#195,#196),#104,.T.);
#216=ADVANCED_FACE('',(#197,#198),#105,.T.);
#217=ADVANCED_FACE('',(#199,#200),#110,.F.);
#218=ADVANCED_FACE('',(#201,#202),#106,.T.);
#219=ADVANCED_FACE('',(#203,#204),#111,.T.);
#220=ADVANCED_FACE('',(#205,#206),#107,.T.);
#221=ADVANCED_FACE('',(#207,#208),#112,.T.);
#222=ADVANCED_FACE('',(#209,#210),#108,.T.);
#223=ADVANCED_FACE('',(#211,#212),#113,.T.);
#224=AXIS2_PLACEMENT_3D('',#246,#279,#280);
#225=AXIS2_PLACEMENT_3D('',#247,#281,#282);
#226=AXIS2_PLACEMENT_3D('',#249,#283,#284);
#227=AXIS2_PLACEMENT_3D('',#251,#285,#286);
#228=AXIS2_PLACEMENT_3D('',#252,#287,#288);
#229=AXIS2_PLACEMENT_3D('',#254,#289,$);
#230=AXIS2_PLACEMENT_3D('',#255,#290,#291);
#231=AXIS2_PLACEMENT_3D('',#257,#292,$);
#232=AXIS2_PLACEMENT_3D('',#258,#293,#294);
#233=AXIS2_PLACEMENT_3D('',#260,#295,#296);
#234=AXIS2_PLACEMENT_3D('',#261,#297,#298);
#235=AXIS2_PLACEMENT_3D('',#263,#299,$);
#236=AXIS2_PLACEMENT_3D('',#264,#300,#301);
#237=AXIS2_PLACEMENT_3D('',#266,#302,#303);
#238=AXIS2_PLACEMENT_3D('',#267,#304,#305);
#239=AXIS2_PLACEMENT_3D('',#269,#306,$);
#240=AXIS2_PLACEMENT_3D('',#270,#307,#308);
#241=AXIS2_PLACEMENT_3D('',#272,#309,#310);
#242=AXIS2_PLACEMENT_3D('',#273,#311,#312);
#243=AXIS2_PLACEMENT_3D('',#275,#313,$);
#244=AXIS2_PLACEMENT_3D('',#276,#314,#315);
#245=AXIS2_PLACEMENT_3D('',#278,#316,#317);
#246=CARTESIAN_POINT('',(0.,2.34479852544565E-62,-5.928125158945E-31));
#247=CARTESIAN_POINT('',(0.,2.37322775337248E-32,-0.6));
#248=CARTESIAN_POINT('',(11.415,-1.3979343212267E-15,-0.6));
#249=CARTESIAN_POINT('',(0.,2.34479852544565E-62,-5.928125158945E-31));
#250=CARTESIAN_POINT('',(12.015,1.47141312917554E-15,-5.928125158945E-31));
#251=CARTESIAN_POINT('',(0.,2.34479852544565E-62,-5.928125158945E-31));
#252=CARTESIAN_POINT('',(0.,6.72414530122202E-31,-17.));
#253=CARTESIAN_POINT('',(-11.415,1.3979343212267E-15,-17.));
#254=CARTESIAN_POINT('',(0.,12.4945,-9.86076131526265E-32));
#255=CARTESIAN_POINT('',(0.,0.,0.));
#256=CARTESIAN_POINT('',(0.,14.9875,0.));
#257=CARTESIAN_POINT('',(0.,10.4015,-17.));
#258=CARTESIAN_POINT('',(0.,0.,-17.));
#259=CARTESIAN_POINT('',(0.,10.0515,-17.));
#260=CARTESIAN_POINT('',(0.,0.,-17.5));
#261=CARTESIAN_POINT('',(0.,0.,-18.));
#262=CARTESIAN_POINT('',(0.,10.0515,-18.));
#263=CARTESIAN_POINT('',(0.,12.02575,-18.));
#264=CARTESIAN_POINT('',(0.,0.,-18.));
#265=CARTESIAN_POINT('',(0.,14.,-18.));
#266=CARTESIAN_POINT('',(0.,0.,-12.75));
#267=CARTESIAN_POINT('',(0.,0.,-7.5));
#268=CARTESIAN_POINT('',(0.,14.,-7.5));
#269=CARTESIAN_POINT('',(0.,17.75,-7.5));
#270=CARTESIAN_POINT('',(0.,0.,-7.5));
#271=CARTESIAN_POINT('',(0.,21.5,-7.5));
#272=CARTESIAN_POINT('',(0.,0.,-4.5));
#273=CARTESIAN_POINT('',(0.,0.,-1.5));
#274=CARTESIAN_POINT('',(0.,21.5,-1.5));
#275=CARTESIAN_POINT('',(0.,18.24375,-1.5));
#276=CARTESIAN_POINT('',(0.,0.,-1.5));
#277=CARTESIAN_POINT('',(0.,14.9875,-1.5));
#278=CARTESIAN_POINT('',(0.,0.,-0.75));
#279=DIRECTION('',(0.,-3.95537958895413E-32,1.));
#280=DIRECTION('',(-12.015,0.,0.));
#281=DIRECTION('',(0.,3.95537958895413E-32,-1.));
#282=DIRECTION('',(-11.415,0.,0.));
#283=DIRECTION('',(0.,-3.95537958895413E-32,1.));
#284=DIRECTION('',(-12.015,0.,0.));
#285=DIRECTION('',(0.,3.95537958895413E-32,-1.));
#286=DIRECTION('',(11.415,0.,0.));
#287=DIRECTION('',(0.,0.,-1.));
#288=DIRECTION('',(11.415,0.,0.));
#289=DIRECTION('',(0.,-3.95537958895413E-32,1.));
#290=DIRECTION('',(0.,0.,1.));
#291=DIRECTION('',(0.,14.9875,0.));
#292=DIRECTION('',(0.,0.,1.));
#293=DIRECTION('',(0.,0.,1.));
#294=DIRECTION('',(0.,10.0515,0.));
#295=DIRECTION('',(0.,0.,1.));
#296=DIRECTION('',(0.,10.0515,0.));
#297=DIRECTION('',(0.,0.,1.));
#298=DIRECTION('',(0.,10.0515,0.));
#299=DIRECTION('',(0.,0.,-1.));
#300=DIRECTION('',(0.,0.,1.));
#301=DIRECTION('',(0.,14.,0.));
#302=DIRECTION('',(0.,0.,1.));
#303=DIRECTION('',(0.,14.,0.));
#304=DIRECTION('',(0.,0.,1.));
#305=DIRECTION('',(0.,14.,0.));
#306=DIRECTION('',(0.,0.,-1.));
#307=DIRECTION('',(0.,0.,1.));
#308=DIRECTION('',(0.,21.5,0.));
#309=DIRECTION('',(0.,0.,1.));
#310=DIRECTION('',(0.,21.5,0.));
#311=DIRECTION('',(0.,0.,1.));
#312=DIRECTION('',(0.,21.5,0.));
#313=DIRECTION('',(0.,0.,1.));
#314=DIRECTION('',(0.,0.,1.));
#315=DIRECTION('',(0.,14.9875,0.));
#316=DIRECTION('',(0.,0.,1.));
#317=DIRECTION('',(0.,14.9875,0.));
#318=CONICAL_SURFACE('',#224,12.015,0.785398163397448);
#319=CLOSED_SHELL('',(#213,#214,#215,#216,#217,#218,#219,#220,#221,#222,
#223));
#320=MANIFOLD_SOLID_BREP('',#319);
#321=ADVANCED_BREP_SHAPE_REPRESENTATION('',(#320),#103);
ENDSEC;
END-ISO-10303-21;
