ISO-10303-21;
HEADER;
/* Generated by software containing ST-Developer
 * from STEP Tools, Inc. (www.steptools.com) 
 */

FILE_DESCRIPTION(
/* description */ ('Alibre Inc.'),
/* implementation_level */ '2;1');

FILE_NAME(
/* name */ 'export-D7F7DC2A-53C6-486B-9796-36BAE0C36A6D',
/* time_stamp */ '2025-04-15T10:57:33+08:00',
/* author */ (''),
/* organization */ (''),
/* preprocessor_version */ 'ST-DEVELOPER v17',
/* originating_system */ 'Alibre',
/* authorisation */ '');

FILE_SCHEMA (('CONFIG_CONTROL_DESIGN'));
ENDSEC;

DATA;
#10=MECHANICAL_CONTEXT('detailed design',#18,'mechanical');
#11=PRODUCT_RELATED_PRODUCT_CATEGORY('detail','',(#98));
#12=CC_DESIGN_SECURITY_CLASSIFICATION(#14,(#97));
#13=SECURITY_CLASSIFICATION_LEVEL('unclassified');
#14=SECURITY_CLASSIFICATION('name','Security for version',#13);
#15=SHAPE_DEFINITION_REPRESENTATION(#16,#380);
#16=PRODUCT_DEFINITION_SHAPE('','DefinitionDesc',#96);
#17=APPLICATION_PROTOCOL_DEFINITION('AP definition status',
'config_control_design',1994,#18);
#18=APPLICATION_CONTEXT(
'control the configuration of three dimensional design');
#19=DESIGN_CONTEXT('detailed design',#18,'design');
#20=PERSON_AND_ORGANIZATION_ROLE('creator');
#21=PERSON_AND_ORGANIZATION_ROLE('classification_officer');
#22=PERSON_AND_ORGANIZATION_ROLE('creator');
#23=PERSON_AND_ORGANIZATION_ROLE('design_supplier');
#24=PERSON_AND_ORGANIZATION_ROLE('design_owner');
#25=CC_DESIGN_PERSON_AND_ORGANIZATION_ASSIGNMENT(#57,#20,(#96));
#26=CC_DESIGN_PERSON_AND_ORGANIZATION_ASSIGNMENT(#60,#21,(#14));
#27=CC_DESIGN_PERSON_AND_ORGANIZATION_ASSIGNMENT(#61,#22,(#97));
#28=CC_DESIGN_PERSON_AND_ORGANIZATION_ASSIGNMENT(#62,#23,(#97));
#29=CC_DESIGN_PERSON_AND_ORGANIZATION_ASSIGNMENT(#63,#24,(#98));
#30=DATE_TIME_ROLE('creation_date');
#31=DATE_TIME_ROLE('classification_date');
#32=CC_DESIGN_DATE_AND_TIME_ASSIGNMENT(#86,#30,(#96));
#33=CC_DESIGN_DATE_AND_TIME_ASSIGNMENT(#89,#31,(#14));
#34=CC_DESIGN_APPROVAL(#93,(#96));
#35=CC_DESIGN_APPROVAL(#94,(#97));
#36=CC_DESIGN_APPROVAL(#95,(#14));
#37=APPROVAL_PERSON_ORGANIZATION(#56,#93,#64);
#38=APPROVAL_PERSON_ORGANIZATION(#58,#94,#65);
#39=APPROVAL_PERSON_ORGANIZATION(#59,#95,#66);
#40=ORGANIZATION('DEFINITION_APPROVEDBY_ORG_ID',
'DEFINITION_APPROVEDBY_ORG_NAME','DEFINITION_APPROVEDBY_ORG_DESCR');
#41=ORGANIZATION('DEF_CREATOR_ORG_ID','DEF_CREATOR_ORG_NAME',
'DEF_CREATOR_ORG_DESCR');
#42=ORGANIZATION('APPROVEDBY_ORG_ID','APPROVEDBY_ORG_NAME',
'APPROVEDBY_ORG_DESCR');
#43=ORGANIZATION('SECURITY_APPROVEDBY_ORG_ID',
'SECURITY_APPROVEDBY_ORG_NAME','SECURITY_APPROVEDBY_ORG_DESCR');
#44=ORGANIZATION('CLASSOFFICER_ORG_ID','CLASSOFFICER_ORG_NAME',
'CLASSOFFICER_ORG_DESCR');
#45=ORGANIZATION('CREATOR_ORG_ID','CREATOR_ORG_NAME',
'CREATOR_ORG_DESCR');
#46=ORGANIZATION('SUPPLIER_ORG_ID','SUPPLIER_ORG_NAME',
'SUPPLIER_ORG_DESCR');
#47=ORGANIZATION('OWNER_ORG_ID','OWNER_ORG_NAME','OWNER_ORG_DESCR');
#48=PERSON('DEFINITION_approverID','DEFINITION_APPROVEDBY_LASTNAME',
'DEFINITION_APPROVEDBY_FIRSTNAME',$,$,$);
#49=PERSON('DEF_createrID','DEF_CREATOR_LASTNAME',
'DEF_CREATOR_FIRSTNAME',$,$,$);
#50=PERSON('approverID','APPROVEDBY_LASTNAME','APPROVEDBY_FIRSTNAME',$,
$,$);
#51=PERSON('SECURITY_approverID','SECURITY_LASTNAME',
'SECURITY_APPROVEDBY_FIRSTNAME',$,$,$);
#52=PERSON('classifierID','CLASSOFFICER_LASTNAME',
'CLASSOFFICER_FIRSTNAME',$,$,$);
#53=PERSON('createrID','CREATOR_LASTNAME','CREATOR_FIRSTNAME',$,$,$);
#54=PERSON('supplierID','SUPPLIER_LASTNAME','SUPPLIER_FIRSTNAME',$,$,$);
#55=PERSON('ownerID','OWNER_LASTNAME','OWNER_FIRSTNAME',$,$,$);
#56=PERSON_AND_ORGANIZATION(#48,#40);
#57=PERSON_AND_ORGANIZATION(#49,#41);
#58=PERSON_AND_ORGANIZATION(#50,#42);
#59=PERSON_AND_ORGANIZATION(#51,#43);
#60=PERSON_AND_ORGANIZATION(#52,#44);
#61=PERSON_AND_ORGANIZATION(#53,#45);
#62=PERSON_AND_ORGANIZATION(#54,#46);
#63=PERSON_AND_ORGANIZATION(#55,#47);
#64=APPROVAL_ROLE('definition_approval');
#65=APPROVAL_ROLE('version_approval');
#66=APPROVAL_ROLE('security_approval');
#67=APPROVAL_DATE_TIME(#85,#93);
#68=APPROVAL_DATE_TIME(#87,#94);
#69=APPROVAL_DATE_TIME(#88,#95);
#70=COORDINATED_UNIVERSAL_TIME_OFFSET(8,0,.AHEAD.);
#71=COORDINATED_UNIVERSAL_TIME_OFFSET(8,0,.AHEAD.);
#72=COORDINATED_UNIVERSAL_TIME_OFFSET(8,0,.AHEAD.);
#73=COORDINATED_UNIVERSAL_TIME_OFFSET(8,0,.AHEAD.);
#74=COORDINATED_UNIVERSAL_TIME_OFFSET(8,0,.AHEAD.);
#75=LOCAL_TIME(17,13,57.,#70);
#76=LOCAL_TIME(17,13,57.,#71);
#77=LOCAL_TIME(17,13,57.,#72);
#78=LOCAL_TIME(17,13,57.,#73);
#79=LOCAL_TIME(17,13,57.,#74);
#80=CALENDAR_DATE(2025,27,3);
#81=CALENDAR_DATE(2025,27,3);
#82=CALENDAR_DATE(2025,27,3);
#83=CALENDAR_DATE(2025,27,3);
#84=CALENDAR_DATE(2025,27,3);
#85=DATE_AND_TIME(#80,#75);
#86=DATE_AND_TIME(#81,#76);
#87=DATE_AND_TIME(#82,#77);
#88=DATE_AND_TIME(#83,#78);
#89=DATE_AND_TIME(#84,#79);
#90=APPROVAL_STATUS('not_yet_approved');
#91=APPROVAL_STATUS('not_yet_approved');
#92=APPROVAL_STATUS('not_yet_approved');
#93=APPROVAL(#90,'defintion approval');
#94=APPROVAL(#91,'version approval');
#95=APPROVAL(#92,'security approval');
#96=PRODUCT_DEFINITION('DefinitionID','DefinitionDesc',#97,#19);
#97=PRODUCT_DEFINITION_FORMATION_WITH_SPECIFIED_SOURCE(
'PRODUCT_VERSION_ID','PRODUCT_VERSION_DESCR',#98,.NOT_KNOWN.);
#98=PRODUCT('','2500','',(#10));
#99=(
LENGTH_UNIT()
NAMED_UNIT(*)
SI_UNIT(.CENTI.,.METRE.)
);
#100=(
NAMED_UNIT(*)
PLANE_ANGLE_UNIT()
SI_UNIT($,.RADIAN.)
);
#101=(
NAMED_UNIT(*)
SI_UNIT($,.STERADIAN.)
SOLID_ANGLE_UNIT()
);
#102=UNCERTAINTY_MEASURE_WITH_UNIT(LENGTH_MEASURE(1.E-6),#99,
'DISTANCE_ACCURACY_VALUE',
'Maximum model space distance between geometric entities at asserted c
onnectivities');
#103=(
GEOMETRIC_REPRESENTATION_CONTEXT(3)
GLOBAL_UNCERTAINTY_ASSIGNED_CONTEXT((#102))
GLOBAL_UNIT_ASSIGNED_CONTEXT((#101,#100,#99))
REPRESENTATION_CONTEXT('ID1','3D')
);
#104=CYLINDRICAL_SURFACE('',#261,9.215);
#105=CYLINDRICAL_SURFACE('',#266,9.415);
#106=CYLINDRICAL_SURFACE('',#271,7.8015);
#107=CYLINDRICAL_SURFACE('',#275,10.75);
#108=CYLINDRICAL_SURFACE('',#279,16.5);
#109=CYLINDRICAL_SURFACE('',#283,11.985);
#110=PLANE('',#259);
#111=PLANE('',#267);
#112=PLANE('',#269);
#113=PLANE('',#273);
#114=PLANE('',#277);
#115=PLANE('',#281);
#116=VERTEX_POINT('',#286);
#117=VERTEX_POINT('',#288);
#118=VERTEX_POINT('',#291);
#119=VERTEX_POINT('',#294);
#120=VERTEX_POINT('',#297);
#121=VERTEX_POINT('',#299);
#122=VERTEX_POINT('',#303);
#123=VERTEX_POINT('',#306);
#124=VERTEX_POINT('',#309);
#125=VERTEX_POINT('',#312);
#126=VERTEX_POINT('',#315);
#127=VERTEX_POINT('',#318);
#128=VERTEX_POINT('',#321);
#129=VERTEX_POINT('',#324);
#130=CIRCLE('',#257,9.305);
#131=CIRCLE('',#258,9.215);
#132=CIRCLE('',#260,9.415);
#133=CIRCLE('',#262,9.215);
#134=CIRCLE('',#264,9.415);
#135=CIRCLE('',#265,10.015);
#136=CIRCLE('',#268,11.985);
#137=CIRCLE('',#270,7.8015);
#138=CIRCLE('',#272,7.8015);
#139=CIRCLE('',#274,10.75);
#140=CIRCLE('',#276,10.75);
#141=CIRCLE('',#278,16.5);
#142=CIRCLE('',#280,16.5);
#143=CIRCLE('',#282,11.985);
#144=EDGE_CURVE('',#116,#116,#130,.T.);
#145=EDGE_CURVE('',#117,#117,#131,.T.);
#146=EDGE_CURVE('',#118,#118,#132,.T.);
#147=EDGE_CURVE('',#119,#119,#133,.T.);
#148=EDGE_CURVE('',#120,#120,#134,.T.);
#149=EDGE_CURVE('',#121,#121,#135,.T.);
#150=EDGE_CURVE('',#122,#122,#136,.T.);
#151=EDGE_CURVE('',#123,#123,#137,.T.);
#152=EDGE_CURVE('',#124,#124,#138,.T.);
#153=EDGE_CURVE('',#125,#125,#139,.T.);
#154=EDGE_CURVE('',#126,#126,#140,.T.);
#155=EDGE_CURVE('',#127,#127,#141,.T.);
#156=EDGE_CURVE('',#128,#128,#142,.T.);
#157=EDGE_CURVE('',#129,#129,#143,.T.);
#158=ORIENTED_EDGE('',*,*,#144,.T.);
#159=ORIENTED_EDGE('',*,*,#145,.T.);
#160=ORIENTED_EDGE('',*,*,#146,.T.);
#161=ORIENTED_EDGE('',*,*,#144,.F.);
#162=ORIENTED_EDGE('',*,*,#147,.F.);
#163=ORIENTED_EDGE('',*,*,#145,.F.);
#164=ORIENTED_EDGE('',*,*,#148,.T.);
#165=ORIENTED_EDGE('',*,*,#149,.T.);
#166=ORIENTED_EDGE('',*,*,#146,.F.);
#167=ORIENTED_EDGE('',*,*,#148,.F.);
#168=ORIENTED_EDGE('',*,*,#150,.T.);
#169=ORIENTED_EDGE('',*,*,#149,.F.);
#170=ORIENTED_EDGE('',*,*,#151,.F.);
#171=ORIENTED_EDGE('',*,*,#147,.T.);
#172=ORIENTED_EDGE('',*,*,#151,.T.);
#173=ORIENTED_EDGE('',*,*,#152,.F.);
#174=ORIENTED_EDGE('',*,*,#153,.F.);
#175=ORIENTED_EDGE('',*,*,#152,.T.);
#176=ORIENTED_EDGE('',*,*,#154,.F.);
#177=ORIENTED_EDGE('',*,*,#153,.T.);
#178=ORIENTED_EDGE('',*,*,#155,.F.);
#179=ORIENTED_EDGE('',*,*,#154,.T.);
#180=ORIENTED_EDGE('',*,*,#156,.F.);
#181=ORIENTED_EDGE('',*,*,#155,.T.);
#182=ORIENTED_EDGE('',*,*,#157,.F.);
#183=ORIENTED_EDGE('',*,*,#156,.T.);
#184=ORIENTED_EDGE('',*,*,#150,.F.);
#185=ORIENTED_EDGE('',*,*,#157,.T.);
#186=EDGE_LOOP('',(#158));
#187=EDGE_LOOP('',(#159));
#188=EDGE_LOOP('',(#160));
#189=EDGE_LOOP('',(#161));
#190=EDGE_LOOP('',(#162));
#191=EDGE_LOOP('',(#163));
#192=EDGE_LOOP('',(#164));
#193=EDGE_LOOP('',(#165));
#194=EDGE_LOOP('',(#166));
#195=EDGE_LOOP('',(#167));
#196=EDGE_LOOP('',(#168));
#197=EDGE_LOOP('',(#169));
#198=EDGE_LOOP('',(#170));
#199=EDGE_LOOP('',(#171));
#200=EDGE_LOOP('',(#172));
#201=EDGE_LOOP('',(#173));
#202=EDGE_LOOP('',(#174));
#203=EDGE_LOOP('',(#175));
#204=EDGE_LOOP('',(#176));
#205=EDGE_LOOP('',(#177));
#206=EDGE_LOOP('',(#178));
#207=EDGE_LOOP('',(#179));
#208=EDGE_LOOP('',(#180));
#209=EDGE_LOOP('',(#181));
#210=EDGE_LOOP('',(#182));
#211=EDGE_LOOP('',(#183));
#212=EDGE_LOOP('',(#184));
#213=EDGE_LOOP('',(#185));
#214=FACE_BOUND('',#186,.T.);
#215=FACE_BOUND('',#187,.T.);
#216=FACE_BOUND('',#188,.T.);
#217=FACE_BOUND('',#189,.T.);
#218=FACE_BOUND('',#190,.T.);
#219=FACE_BOUND('',#191,.T.);
#220=FACE_BOUND('',#192,.T.);
#221=FACE_BOUND('',#193,.T.);
#222=FACE_BOUND('',#194,.T.);
#223=FACE_BOUND('',#195,.T.);
#224=FACE_BOUND('',#196,.T.);
#225=FACE_BOUND('',#197,.T.);
#226=FACE_BOUND('',#198,.T.);
#227=FACE_BOUND('',#199,.T.);
#228=FACE_BOUND('',#200,.T.);
#229=FACE_BOUND('',#201,.T.);
#230=FACE_BOUND('',#202,.T.);
#231=FACE_BOUND('',#203,.T.);
#232=FACE_BOUND('',#204,.T.);
#233=FACE_BOUND('',#205,.T.);
#234=FACE_BOUND('',#206,.T.);
#235=FACE_BOUND('',#207,.T.);
#236=FACE_BOUND('',#208,.T.);
#237=FACE_BOUND('',#209,.T.);
#238=FACE_BOUND('',#210,.T.);
#239=FACE_BOUND('',#211,.T.);
#240=FACE_BOUND('',#212,.T.);
#241=FACE_BOUND('',#213,.T.);
#242=ADVANCED_FACE('',(#214,#215),#376,.F.);
#243=ADVANCED_FACE('',(#216,#217),#110,.T.);
#244=ADVANCED_FACE('',(#218,#219),#104,.F.);
#245=ADVANCED_FACE('',(#220,#221),#377,.F.);
#246=ADVANCED_FACE('',(#222,#223),#105,.F.);
#247=ADVANCED_FACE('',(#224,#225),#111,.T.);
#248=ADVANCED_FACE('',(#226,#227),#112,.T.);
#249=ADVANCED_FACE('',(#228,#229),#106,.F.);
#250=ADVANCED_FACE('',(#230,#231),#113,.T.);
#251=ADVANCED_FACE('',(#232,#233),#107,.T.);
#252=ADVANCED_FACE('',(#234,#235),#114,.T.);
#253=ADVANCED_FACE('',(#236,#237),#108,.T.);
#254=ADVANCED_FACE('',(#238,#239),#115,.T.);
#255=ADVANCED_FACE('',(#240,#241),#109,.T.);
#256=AXIS2_PLACEMENT_3D('',#284,#326,#327);
#257=AXIS2_PLACEMENT_3D('',#285,#328,#329);
#258=AXIS2_PLACEMENT_3D('',#287,#330,#331);
#259=AXIS2_PLACEMENT_3D('',#289,#332,$);
#260=AXIS2_PLACEMENT_3D('',#290,#333,#334);
#261=AXIS2_PLACEMENT_3D('',#292,#335,#336);
#262=AXIS2_PLACEMENT_3D('',#293,#337,#338);
#263=AXIS2_PLACEMENT_3D('',#295,#339,#340);
#264=AXIS2_PLACEMENT_3D('',#296,#341,#342);
#265=AXIS2_PLACEMENT_3D('',#298,#343,#344);
#266=AXIS2_PLACEMENT_3D('',#300,#345,#346);
#267=AXIS2_PLACEMENT_3D('',#301,#347,$);
#268=AXIS2_PLACEMENT_3D('',#302,#348,#349);
#269=AXIS2_PLACEMENT_3D('',#304,#350,$);
#270=AXIS2_PLACEMENT_3D('',#305,#351,#352);
#271=AXIS2_PLACEMENT_3D('',#307,#353,#354);
#272=AXIS2_PLACEMENT_3D('',#308,#355,#356);
#273=AXIS2_PLACEMENT_3D('',#310,#357,$);
#274=AXIS2_PLACEMENT_3D('',#311,#358,#359);
#275=AXIS2_PLACEMENT_3D('',#313,#360,#361);
#276=AXIS2_PLACEMENT_3D('',#314,#362,#363);
#277=AXIS2_PLACEMENT_3D('',#316,#364,$);
#278=AXIS2_PLACEMENT_3D('',#317,#365,#366);
#279=AXIS2_PLACEMENT_3D('',#319,#367,#368);
#280=AXIS2_PLACEMENT_3D('',#320,#369,#370);
#281=AXIS2_PLACEMENT_3D('',#322,#371,$);
#282=AXIS2_PLACEMENT_3D('',#323,#372,#373);
#283=AXIS2_PLACEMENT_3D('',#325,#374,#375);
#284=CARTESIAN_POINT('',(0.,0.,-3.));
#285=CARTESIAN_POINT('',(0.,0.,-3.));
#286=CARTESIAN_POINT('',(9.305,1.13953384660661E-15,-3.));
#287=CARTESIAN_POINT('',(0.,0.,-3.09));
#288=CARTESIAN_POINT('',(9.215,-1.12851202541429E-15,-3.09));
#289=CARTESIAN_POINT('',(0.,0.,-3.));
#290=CARTESIAN_POINT('',(0.,0.,-3.));
#291=CARTESIAN_POINT('',(9.415,0.,-3.));
#292=CARTESIAN_POINT('',(0.,0.,0.));
#293=CARTESIAN_POINT('',(0.,0.,-13.));
#294=CARTESIAN_POINT('',(9.215,0.,-13.));
#295=CARTESIAN_POINT('',(0.,0.,0.));
#296=CARTESIAN_POINT('',(0.,0.,-0.6));
#297=CARTESIAN_POINT('',(9.415,-1.15300496139723E-15,-0.6));
#298=CARTESIAN_POINT('',(0.,0.,0.));
#299=CARTESIAN_POINT('',(10.015,1.22648376934607E-15,0.));
#300=CARTESIAN_POINT('',(0.,0.,0.));
#301=CARTESIAN_POINT('',(0.,9.86825,0.));
#302=CARTESIAN_POINT('',(0.,0.,0.));
#303=CARTESIAN_POINT('',(0.,11.985,0.));
#304=CARTESIAN_POINT('',(0.,0.,-13.));
#305=CARTESIAN_POINT('',(0.,0.,-13.));
#306=CARTESIAN_POINT('',(7.8015,0.,-13.));
#307=CARTESIAN_POINT('',(0.,0.,-13.));
#308=CARTESIAN_POINT('',(0.,0.,-13.5));
#309=CARTESIAN_POINT('',(0.,7.8015,-13.5));
#310=CARTESIAN_POINT('',(0.,9.27575,-13.5));
#311=CARTESIAN_POINT('',(0.,0.,-13.5));
#312=CARTESIAN_POINT('',(0.,10.75,-13.5));
#313=CARTESIAN_POINT('',(0.,0.,-9.5));
#314=CARTESIAN_POINT('',(0.,0.,-5.5));
#315=CARTESIAN_POINT('',(0.,10.75,-5.5));
#316=CARTESIAN_POINT('',(0.,13.625,-5.5));
#317=CARTESIAN_POINT('',(0.,0.,-5.5));
#318=CARTESIAN_POINT('',(0.,16.5,-5.5));
#319=CARTESIAN_POINT('',(0.,0.,-3.25));
#320=CARTESIAN_POINT('',(0.,0.,-1.));
#321=CARTESIAN_POINT('',(0.,16.5,-1.));
#322=CARTESIAN_POINT('',(0.,14.2425,-1.));
#323=CARTESIAN_POINT('',(0.,0.,-1.));
#324=CARTESIAN_POINT('',(0.,11.985,-1.));
#325=CARTESIAN_POINT('',(0.,0.,-0.5));
#326=DIRECTION('',(0.,0.,1.));
#327=DIRECTION('',(-9.305,0.,0.));
#328=DIRECTION('',(0.,0.,1.));
#329=DIRECTION('',(-9.305,0.,0.));
#330=DIRECTION('',(0.,0.,-1.));
#331=DIRECTION('',(-9.215,0.,0.));
#332=DIRECTION('',(0.,0.,1.));
#333=DIRECTION('',(0.,0.,1.));
#334=DIRECTION('',(9.415,0.,0.));
#335=DIRECTION('',(0.,0.,-1.));
#336=DIRECTION('',(9.215,0.,0.));
#337=DIRECTION('',(0.,0.,1.));
#338=DIRECTION('',(9.215,0.,0.));
#339=DIRECTION('',(0.,0.,1.));
#340=DIRECTION('',(-10.015,0.,0.));
#341=DIRECTION('',(0.,0.,-1.));
#342=DIRECTION('',(-9.415,0.,0.));
#343=DIRECTION('',(0.,0.,1.));
#344=DIRECTION('',(-10.015,0.,0.));
#345=DIRECTION('',(0.,0.,-1.));
#346=DIRECTION('',(9.415,0.,0.));
#347=DIRECTION('',(0.,0.,1.));
#348=DIRECTION('',(0.,0.,1.));
#349=DIRECTION('',(0.,11.985,0.));
#350=DIRECTION('',(0.,0.,1.));
#351=DIRECTION('',(0.,0.,1.));
#352=DIRECTION('',(0.,7.8015,0.));
#353=DIRECTION('',(0.,0.,1.));
#354=DIRECTION('',(0.,7.8015,0.));
#355=DIRECTION('',(0.,0.,1.));
#356=DIRECTION('',(0.,7.8015,0.));
#357=DIRECTION('',(0.,0.,-1.));
#358=DIRECTION('',(0.,0.,1.));
#359=DIRECTION('',(0.,10.75,0.));
#360=DIRECTION('',(0.,0.,1.));
#361=DIRECTION('',(0.,10.75,0.));
#362=DIRECTION('',(0.,0.,1.));
#363=DIRECTION('',(0.,10.75,0.));
#364=DIRECTION('',(0.,0.,-1.));
#365=DIRECTION('',(0.,0.,1.));
#366=DIRECTION('',(0.,16.5,0.));
#367=DIRECTION('',(0.,0.,1.));
#368=DIRECTION('',(0.,16.5,0.));
#369=DIRECTION('',(0.,0.,1.));
#370=DIRECTION('',(0.,16.5,0.));
#371=DIRECTION('',(0.,0.,1.));
#372=DIRECTION('',(0.,0.,1.));
#373=DIRECTION('',(0.,11.985,0.));
#374=DIRECTION('',(0.,0.,1.));
#375=DIRECTION('',(0.,11.985,0.));
#376=CONICAL_SURFACE('',#256,9.305,0.785398163397448);
#377=CONICAL_SURFACE('',#263,10.015,0.785398163397448);
#378=CLOSED_SHELL('',(#242,#243,#244,#245,#246,#247,#248,#249,#250,#251,
#252,#253,#254,#255));
#379=MANIFOLD_SOLID_BREP('',#378);
#380=ADVANCED_BREP_SHAPE_REPRESENTATION('',(#379),#103);
ENDSEC;
END-ISO-10303-21;
