ISO-10303-21;
HEADER;
FILE_DESCRIPTION(('CATIA V5 STEP Exchange'),'2;1');

FILE_NAME('I:\\isr\\design\\admin8\\users\\farid_a\\3800013.stp','2012-12-02T09:01:16+00:00',('none'),('none'),'CATIA Version 5 Release 21 SP 3 (IN-10)','CATIA V5 STEP AP214','none');

FILE_SCHEMA(('AUTOMOTIVE_DESIGN { 1 0 10303 214 1 1 1 1 }'));

ENDSEC;
DATA;
#5=PRODUCT('61081840_0  SER 3232 P22','','',(#2)) ;
#2=PRODUCT_CONTEXT(' ',#1,'mechanical') ;
#1=APPLICATION_CONTEXT('automotive design') ;
#10=PRODUCT_DEFINITION('',' ',#6,#3) ;
#3=PRODUCT_DEFINITION_CONTEXT('part definition',#1,' ') ;
#11=PRODUCT_DEFINITION_SHAPE(' ',' ',#10) ;
#520=MECHANICAL_DESIGN_GEOMETRIC_PRESENTATION_REPRESENTATION(' ',(#30),#17) ;
#20=SHAPE_REPRESENTATION(' ',(#19),#17) ;
#19=AXIS2_PLACEMENT_3D(' ',#18,$,$) ;
#35=AXIS2_PLACEMENT_3D('Plane Axis2P3D',#32,#33,#34) ;
#75=AXIS2_PLACEMENT_3D('Plane Axis2P3D',#72,#73,#74) ;
#115=AXIS2_PLACEMENT_3D('Plane Axis2P3D',#112,#113,#114) ;
#146=AXIS2_PLACEMENT_3D('Plane Axis2P3D',#143,#144,#145) ;
#186=AXIS2_PLACEMENT_3D('Plane Axis2P3D',#183,#184,#185) ;
#217=AXIS2_PLACEMENT_3D('Cylinder Axis2P3D',#214,#215,#216) ;
#221=AXIS2_PLACEMENT_3D('Circle Axis2P3D',#219,#220,$) ;
#226=AXIS2_PLACEMENT_3D('Circle Axis2P3D',#224,#225,$) ;
#239=AXIS2_PLACEMENT_3D('Plane Axis2P3D',#236,#237,#238) ;
#274=AXIS2_PLACEMENT_3D('Plane Axis2P3D',#271,#272,#273) ;
#305=AXIS2_PLACEMENT_3D('Plane Axis2P3D',#302,#303,#304) ;
#370=AXIS2_PLACEMENT_3D('Plane Axis2P3D',#367,#368,#369) ;
#394=AXIS2_PLACEMENT_3D('Plane Axis2P3D',#391,#392,#393) ;
#420=AXIS2_PLACEMENT_3D('Plane Axis2P3D',#417,#418,#419) ;
#450=AXIS2_PLACEMENT_3D('Plane Axis2P3D',#447,#448,#449) ;
#475=AXIS2_PLACEMENT_3D('Plane Axis2P3D',#472,#473,#474) ;
#495=AXIS2_PLACEMENT_3D('Plane Axis2P3D',#492,#493,#494) ;
#509=AXIS2_PLACEMENT_3D('PCS',#506,#507,#508) ;
#515=AXIS2_PLACEMENT_3D('MCS',#512,#513,#514) ;
#519=AXIS2_PLACEMENT_3D('CSW',#516,#517,#518) ;
#18=CARTESIAN_POINT(' ',(0.,0.,0.)) ;
#32=CARTESIAN_POINT('Axis2P3D Location',(-26.3359335379,-16.1598149887,-161.867005281)) ;
#37=CARTESIAN_POINT('Line Origine',(-30.5984451487,-5.43639799844E-010,-157.913441811)) ;
#41=CARTESIAN_POINT('Vertex',(-32.,2.07081389598E-014,-155.429660309)) ;
#43=CARTESIAN_POINT('Vertex',(-29.1968902983,2.19095852572E-010,-160.397223314)) ;
#46=CARTESIAN_POINT('Line Origine',(-32.,12.2600627441,-158.161117761)) ;
#50=CARTESIAN_POINT('Vertex',(-32.,24.5201254884,-160.892575213)) ;
#53=CARTESIAN_POINT('Line Origine',(-31.2791074924,24.3214679249,-162.125853602)) ;
#57=CARTESIAN_POINT('Vertex',(-30.558214985,24.1228103606,-163.359131993)) ;
#60=CARTESIAN_POINT('Line Origine',(-29.8775526412,12.0614051803,-161.878177653)) ;
#72=CARTESIAN_POINT('Axis2P3D Location',(-32.,32.5,-136.)) ;
#77=CARTESIAN_POINT('Line Origine',(0.,34.3499999996,-136.)) ;
#81=CARTESIAN_POINT('Vertex',(0.,32.5,-136.)) ;
#83=CARTESIAN_POINT('Vertex',(0.,36.2,-136.)) ;
#86=CARTESIAN_POINT('Line Origine',(-16.,36.1999999993,-136.)) ;
#90=CARTESIAN_POINT('Vertex',(-32.,36.2,-136.)) ;
#93=CARTESIAN_POINT('Line Origine',(-32.,34.3499999996,-136.)) ;
#97=CARTESIAN_POINT('Vertex',(-32.,32.5,-136.)) ;
#100=CARTESIAN_POINT('Line Origine',(-16.,32.5,-136.)) ;
#112=CARTESIAN_POINT('Axis2P3D Location',(-32.,36.2,-136.)) ;
#117=CARTESIAN_POINT('Line Origine',(0.,36.2,-142.475729687)) ;
#121=CARTESIAN_POINT('Vertex',(0.,36.2,-148.951459374)) ;
#124=CARTESIAN_POINT('Line Origine',(-16.,36.2,-146.576149758)) ;
#128=CARTESIAN_POINT('Vertex',(-32.,36.2,-144.200840141)) ;
#131=CARTESIAN_POINT('Line Origine',(-32.,36.2,-140.100420071)) ;
#143=CARTESIAN_POINT('Axis2P3D Location',(-32.,0.,2.95045765597E-010)) ;
#148=CARTESIAN_POINT('Line Origine',(0.,16.,2.95047724362E-010)) ;
#152=CARTESIAN_POINT('Vertex',(0.,1.68000033802E-015,0.)) ;
#154=CARTESIAN_POINT('Vertex',(0.,32.,2.95049683128E-010)) ;
#157=CARTESIAN_POINT('Line Origine',(-16.,32.,2.95049683128E-010)) ;
#161=CARTESIAN_POINT('Vertex',(-32.,32.,2.95049683128E-010)) ;
#164=CARTESIAN_POINT('Line Origine',(-32.,16.,2.95047724362E-010)) ;
#168=CARTESIAN_POINT('Vertex',(-32.,1.68000033802E-015,0.)) ;
#171=CARTESIAN_POINT('Line Origine',(-16.,0.,2.95045765597E-010)) ;
#183=CARTESIAN_POINT('Axis2P3D Location',(-32.,32.,2.95045765597E-010)) ;
#188=CARTESIAN_POINT('Line Origine',(0.,32.,-67.7499999997)) ;
#192=CARTESIAN_POINT('Vertex',(0.,32.,-135.5)) ;
#195=CARTESIAN_POINT('Line Origine',(-16.,32.,-135.5)) ;
#199=CARTESIAN_POINT('Vertex',(-32.,32.,-135.5)) ;
#202=CARTESIAN_POINT('Line Origine',(-32.,32.,-67.7499999997)) ;
#214=CARTESIAN_POINT('Axis2P3D Location',(-32.,32.5,-135.5)) ;
#219=CARTESIAN_POINT('Axis2P3D Location',(0.,32.5,-135.5)) ;
#224=CARTESIAN_POINT('Axis2P3D Location',(-32.,32.5,-135.5)) ;
#236=CARTESIAN_POINT('Axis2P3D Location',(0.,32.5,-135.5)) ;
#241=CARTESIAN_POINT('Line Origine',(0.,-7.1054273576E-015,-77.1402588176)) ;
#245=CARTESIAN_POINT('Vertex',(0.,2.05674576636E-014,-154.280517636)) ;
#248=CARTESIAN_POINT('Line Origine',(0.,17.1344293812,-157.090135104)) ;
#252=CARTESIAN_POINT('Vertex',(0.,34.2688587625,-159.899752572)) ;
#255=CARTESIAN_POINT('Line Origine',(0.,35.2344293809,-154.425605973)) ;
#271=CARTESIAN_POINT('Axis2P3D Location',(-8.76561562455,-14.6701446497,-156.029994075)) ;
#276=CARTESIAN_POINT('Line Origine',(-6.45204866071,-3.97667676566E-010,-157.338870475)) ;
#280=CARTESIAN_POINT('Vertex',(-12.9040973205,2.19095852572E-010,-160.397223314)) ;
#283=CARTESIAN_POINT('Line Origine',(-11.4616147721,16.5998614545,-162.435430014)) ;
#287=CARTESIAN_POINT('Vertex',(-10.0191322211,33.1997229086,-164.473636714)) ;
#290=CARTESIAN_POINT('Line Origine',(-5.00956611145,33.7342908364,-162.186694643)) ;
#302=CARTESIAN_POINT('Axis2P3D Location',(-67.4734721347,28.8306267488,-180.714031026)) ;
#307=CARTESIAN_POINT('Line Origine',(-17.689689651,33.4776815917,-161.759048077)) ;
#311=CARTESIAN_POINT('Vertex',(-22.3816391397,32.8828617411,-164.434731054)) ;
#313=CARTESIAN_POINT('Vertex',(-12.9977401632,34.0725014415,-159.0833651)) ;
#316=CARTESIAN_POINT('Line Origine',(-17.8354192966,34.4298896058,-156.339024041)) ;
#320=CARTESIAN_POINT('Vertex',(-22.6730984297,34.7872777693,-153.594682983)) ;
#323=CARTESIAN_POINT('Line Origine',(-23.9751005723,34.8834644214,-152.856077168)) ;
#327=CARTESIAN_POINT('Vertex',(-25.2771027141,34.9796510724,-152.117471353)) ;
#330=CARTESIAN_POINT('Line Origine',(-25.5641971519,35.0008604483,-151.954607089)) ;
#334=CARTESIAN_POINT('Vertex',(-25.8512915892,35.0220698239,-151.791742825)) ;
#337=CARTESIAN_POINT('Line Origine',(-28.9256457945,35.2491906758,-150.04770891)) ;
#341=CARTESIAN_POINT('Vertex',(-32.,35.4763115272,-148.303674996)) ;
#344=CARTESIAN_POINT('Line Origine',(-31.9999999997,35.8381557639,-146.252257568)) ;
#349=CARTESIAN_POINT('Line Origine',(-16.2003856807,33.0412923256,-164.454183884)) ;
#367=CARTESIAN_POINT('Axis2P3D Location',(-32.,2.13162820728E-014,-160.397223314)) ;
#372=CARTESIAN_POINT('Line Origine',(-21.0504938094,2.13162820728E-014,-160.397223314)) ;
#377=CARTESIAN_POINT('Line Origine',(-32.,1.11940696489E-014,-77.7148301546)) ;
#391=CARTESIAN_POINT('Axis2P3D Location',(-32.,36.2,-164.842024419)) ;
#396=CARTESIAN_POINT('Line Origine',(-26.7464072304,24.2205101125,-163.371128013)) ;
#400=CARTESIAN_POINT('Vertex',(-22.9345994767,24.318209864,-163.383124034)) ;
#403=CARTESIAN_POINT('Line Origine',(-22.6581193078,28.6005358028,-163.908927544)) ;
#417=CARTESIAN_POINT('Axis2P3D Location',(-32.,32.5,-135.5)) ;
#422=CARTESIAN_POINT('Line Origine',(-32.,31.2512785168,-147.494103862)) ;
#426=CARTESIAN_POINT('Vertex',(-32.,27.0262455065,-146.684532727)) ;
#429=CARTESIAN_POINT('Line Origine',(-32.,25.7731854975,-153.78855397)) ;
#447=CARTESIAN_POINT('Axis2P3D Location',(-30.1567033625,26.54997641,-149.658313425)) ;
#452=CARTESIAN_POINT('Line Origine',(-22.3880192566,26.3161512528,-152.13726175)) ;
#456=CARTESIAN_POINT('Vertex',(-12.7760385131,25.6060569992,-157.589990772)) ;
#459=CARTESIAN_POINT('Line Origine',(-17.8553189947,24.9621334316,-160.486557403)) ;
#472=CARTESIAN_POINT('Axis2P3D Location',(-22.9669820123,46.0102390077,-155.574272208)) ;
#477=CARTESIAN_POINT('Line Origine',(-12.8868893382,29.8392792203,-158.336677936)) ;
#492=CARTESIAN_POINT('Axis2P3D Location',(-39.4030402879,41.9851992361,-175.953539344)) ;
#506=CARTESIAN_POINT('Axis2P3D Location',(0.,0.,0.)) ;
#512=CARTESIAN_POINT('Axis2P3D Location',(-16.,32.,-125.5)) ;
#516=CARTESIAN_POINT('Axis2P3D Location',(-25.6981573532,33.9221812004,-159.115490014)) ;
#33=DIRECTION('Axis2P3D Direction',(0.865737588564,0.108839047315,0.488520715556)) ;
#34=DIRECTION('Axis2P3D XDirection',(0.491440172199,1.06619429119E-016,-0.870911337134)) ;
#38=DIRECTION('Vector Direction',(0.491440172199,0.,-0.870911337134)) ;
#47=DIRECTION('Vector Direction',(-2.61734557145E-011,0.976068915946,-0.217461424909)) ;
#54=DIRECTION('Vector Direction',(-0.499833829804,0.137740051206,0.85509871996)) ;
#61=DIRECTION('Vector Direction',(-0.0559247842607,0.990992801645,-0.121678616008)) ;
#73=DIRECTION('Axis2P3D Direction',(0.,1.22422828332E-016,-1.)) ;
#74=DIRECTION('Axis2P3D XDirection',(-1.,0.,0.)) ;
#78=DIRECTION('Vector Direction',(0.,1.,0.)) ;
#87=DIRECTION('Vector Direction',(1.,0.,0.)) ;
#94=DIRECTION('Vector Direction',(0.,1.,0.)) ;
#101=DIRECTION('Vector Direction',(1.,0.,0.)) ;
#113=DIRECTION('Axis2P3D Direction',(0.,-1.,1.2904975438E-017)) ;
#114=DIRECTION('Axis2P3D XDirection',(0.,1.2904975438E-017,1.)) ;
#118=DIRECTION('Vector Direction',(0.,0.,-1.)) ;
#125=DIRECTION('Vector Direction',(-0.989159150814,0.,0.146847452688)) ;
#132=DIRECTION('Vector Direction',(0.,0.,-1.)) ;
#144=DIRECTION('Axis2P3D Direction',(0.,1.22422828332E-016,-1.)) ;
#145=DIRECTION('Axis2P3D XDirection',(-1.,0.,0.)) ;
#149=DIRECTION('Vector Direction',(0.,1.,1.22422828333E-016)) ;
#158=DIRECTION('Vector Direction',(1.,0.,0.)) ;
#165=DIRECTION('Vector Direction',(0.,1.,1.22422828333E-016)) ;
#172=DIRECTION('Vector Direction',(1.,0.,0.)) ;
#184=DIRECTION('Axis2P3D Direction',(0.,-1.,0.)) ;
#185=DIRECTION('Axis2P3D XDirection',(0.,0.,1.)) ;
#189=DIRECTION('Vector Direction',(0.,0.,-1.)) ;
#196=DIRECTION('Vector Direction',(1.,0.,0.)) ;
#203=DIRECTION('Vector Direction',(0.,0.,-1.)) ;
#215=DIRECTION('Axis2P3D Direction',(1.,-0.,0.)) ;
#216=DIRECTION('Axis2P3D XDirection',(0.,3.78070499262E-020,1.)) ;
#220=DIRECTION('Axis2P3D Direction',(1.,-0.,0.)) ;
#225=DIRECTION('Axis2P3D Direction',(1.,-0.,0.)) ;
#237=DIRECTION('Axis2P3D Direction',(-1.,0.,0.)) ;
#238=DIRECTION('Axis2P3D XDirection',(0.,-1.22422828332E-016,1.)) ;
#242=DIRECTION('Vector Direction',(0.,-9.21104941373E-017,1.)) ;
#249=DIRECTION('Vector Direction',(0.,0.986821277759,-0.161813985062)) ;
#256=DIRECTION('Vector Direction',(0.,0.173705907106,0.98479757201)) ;
#272=DIRECTION('Axis2P3D Direction',(-0.423702839544,0.146571309853,0.893863946521)) ;
#273=DIRECTION('Axis2P3D XDirection',(0.903622978255,-5.24372163299E-017,0.428328744273)) ;
#277=DIRECTION('Vector Direction',(0.903622978255,0.,0.428328744273)) ;
#284=DIRECTION('Vector Direction',(-0.0859305196652,-0.988874854524,0.12141856481)) ;
#291=DIRECTION('Vector Direction',(-0.905434334134,-0.0966183785646,-0.413344354618)) ;
#303=DIRECTION('Axis2P3D Direction',(0.0257792616438,-0.984470283991,0.173648177667)) ;
#304=DIRECTION('Axis2P3D XDirection',(0.,0.173705907156,0.984797572001)) ;
#308=DIRECTION('Vector Direction',(0.863455848823,0.109464238615,0.492403876506)) ;
#317=DIRECTION('Vector Direction',(-0.868001428193,0.0641244341585,0.492403876506)) ;
#324=DIRECTION('Vector Direction',(-0.868001428193,0.0641244341585,0.492403876506)) ;
#331=DIRECTION('Vector Direction',(-0.868001428193,0.0641244341585,0.492403876506)) ;
#338=DIRECTION('Vector Direction',(-0.868001428193,0.0641244341585,0.492403876506)) ;
#345=DIRECTION('Vector Direction',(0.,0.173705907156,0.984797572001)) ;
#350=DIRECTION('Vector Direction',(0.99966674522,0.0256222766081,-0.00314602007425)) ;
#368=DIRECTION('Axis2P3D Direction',(0.,1.,1.22422828332E-016)) ;
#369=DIRECTION('Axis2P3D XDirection',(-1.,0.,0.)) ;
#373=DIRECTION('Vector Direction',(1.,0.,0.)) ;
#378=DIRECTION('Vector Direction',(0.,-1.22422828332E-016,1.)) ;
#392=DIRECTION('Axis2P3D Direction',(0.,0.121869343405,0.992546151641)) ;
#393=DIRECTION('Axis2P3D XDirection',(0.,0.992546151641,-0.121869343405)) ;
#397=DIRECTION('Vector Direction',(0.999666745217,0.0256222767269,-0.00314601999724)) ;
#404=DIRECTION('Vector Direction',(0.0639506686745,0.990514470223,-0.121619884294)) ;
#418=DIRECTION('Axis2P3D Direction',(-1.,0.,0.)) ;
#419=DIRECTION('Axis2P3D XDirection',(0.,-1.22422828332E-016,1.)) ;
#423=DIRECTION('Vector Direction',(0.,-0.982132759954,0.188189377554)) ;
#430=DIRECTION('Vector Direction',(0.,-0.173705907156,-0.984797572001)) ;
#448=DIRECTION('Axis2P3D Direction',(-0.0257792616438,0.984470283991,-0.173648177667)) ;
#449=DIRECTION('Axis2P3D XDirection',(-0.00454557937054,0.173588672773,0.984807753012)) ;
#453=DIRECTION('Vector Direction',(-0.868001428193,0.0641244341585,0.492403876506)) ;
#460=DIRECTION('Vector Direction',(0.863455848823,0.109464238615,0.492403876506)) ;
#473=DIRECTION('Axis2P3D Direction',(0.495892075278,0.163420674585,0.852868531952)) ;
#474=DIRECTION('Axis2P3D XDirection',(0.864490327196,6.15357678889E-017,-0.502649454576)) ;
#478=DIRECTION('Vector Direction',(-0.0257792616438,0.984470283991,-0.173648177667)) ;
#493=DIRECTION('Axis2P3D Direction',(0.503765249698,-0.137243726277,-0.852868531952)) ;
#494=DIRECTION('Axis2P3D XDirection',(-0.861016061288,6.22615283162E-017,-0.508577764166)) ;
#507=DIRECTION('Axis2P3D Direction',(0.,0.,1.)) ;
#508=DIRECTION('Axis2P3D XDirection',(1.,0.,0.)) ;
#513=DIRECTION('Axis2P3D Direction',(0.,0.,1.)) ;
#514=DIRECTION('Axis2P3D XDirection',(1.,0.,0.)) ;
#517=DIRECTION('Axis2P3D Direction',(0.0578674821575,0.990442302566,-0.125201436878)) ;
#518=DIRECTION('Axis2P3D XDirection',(-0.503765249698,0.137243726277,0.852868531952)) ;
#8=PRODUCT_RELATED_PRODUCT_CATEGORY('part',$,(#5)) ;
#7=PRODUCT_CATEGORY('part','specification') ;
#30=STYLED_ITEM(' ',(#29),#22) ;
#29=PRESENTATION_STYLE_ASSIGNMENT((#28)) ;
#28=SURFACE_STYLE_USAGE(.BOTH.,#27) ;
#27=SURFACE_SIDE_STYLE(' ',(#26)) ;
#26=SURFACE_STYLE_FILL_AREA(#25) ;
#25=FILL_AREA_STYLE(' ',(#24)) ;
#24=FILL_AREA_STYLE_COLOUR(' ',#23) ;
#39=VECTOR('Line Direction',#38,1.) ;
#48=VECTOR('Line Direction',#47,1.) ;
#55=VECTOR('Line Direction',#54,1.) ;
#62=VECTOR('Line Direction',#61,1.) ;
#79=VECTOR('Line Direction',#78,1.) ;
#88=VECTOR('Line Direction',#87,1.) ;
#95=VECTOR('Line Direction',#94,1.) ;
#102=VECTOR('Line Direction',#101,1.) ;
#119=VECTOR('Line Direction',#118,1.) ;
#126=VECTOR('Line Direction',#125,1.) ;
#133=VECTOR('Line Direction',#132,1.) ;
#150=VECTOR('Line Direction',#149,1.) ;
#159=VECTOR('Line Direction',#158,1.) ;
#166=VECTOR('Line Direction',#165,1.) ;
#173=VECTOR('Line Direction',#172,1.) ;
#190=VECTOR('Line Direction',#189,1.) ;
#197=VECTOR('Line Direction',#196,1.) ;
#204=VECTOR('Line Direction',#203,1.) ;
#243=VECTOR('Line Direction',#242,1.) ;
#250=VECTOR('Line Direction',#249,1.) ;
#257=VECTOR('Line Direction',#256,1.) ;
#278=VECTOR('Line Direction',#277,1.) ;
#285=VECTOR('Line Direction',#284,1.) ;
#292=VECTOR('Line Direction',#291,1.) ;
#309=VECTOR('Line Direction',#308,1.) ;
#318=VECTOR('Line Direction',#317,1.) ;
#325=VECTOR('Line Direction',#324,1.) ;
#332=VECTOR('Line Direction',#331,1.) ;
#339=VECTOR('Line Direction',#338,1.) ;
#346=VECTOR('Line Direction',#345,1.) ;
#351=VECTOR('Line Direction',#350,1.) ;
#374=VECTOR('Line Direction',#373,1.) ;
#379=VECTOR('Line Direction',#378,1.) ;
#398=VECTOR('Line Direction',#397,1.) ;
#405=VECTOR('Line Direction',#404,1.) ;
#424=VECTOR('Line Direction',#423,1.) ;
#431=VECTOR('Line Direction',#430,1.) ;
#454=VECTOR('Line Direction',#453,1.) ;
#461=VECTOR('Line Direction',#460,1.) ;
#479=VECTOR('Line Direction',#478,1.) ;
#16=UNCERTAINTY_MEASURE_WITH_UNIT(LENGTH_MEASURE(0.005),#12,'distance_accuracy_value','CONFUSED CURVE UNCERTAINTY') ;
#505=SHAPE_REPRESENTATION_RELATIONSHIP(' ',' ',#20,#504) ;
#66=ORIENTED_EDGE('',*,*,#45,.F.) ;
#67=ORIENTED_EDGE('',*,*,#52,.T.) ;
#68=ORIENTED_EDGE('',*,*,#59,.F.) ;
#69=ORIENTED_EDGE('',*,*,#64,.F.) ;
#106=ORIENTED_EDGE('',*,*,#85,.T.) ;
#107=ORIENTED_EDGE('',*,*,#92,.F.) ;
#108=ORIENTED_EDGE('',*,*,#99,.F.) ;
#109=ORIENTED_EDGE('',*,*,#104,.T.) ;
#137=ORIENTED_EDGE('',*,*,#123,.T.) ;
#138=ORIENTED_EDGE('',*,*,#130,.T.) ;
#139=ORIENTED_EDGE('',*,*,#135,.F.) ;
#140=ORIENTED_EDGE('',*,*,#92,.T.) ;
#177=ORIENTED_EDGE('',*,*,#156,.T.) ;
#178=ORIENTED_EDGE('',*,*,#163,.F.) ;
#179=ORIENTED_EDGE('',*,*,#170,.F.) ;
#180=ORIENTED_EDGE('',*,*,#175,.T.) ;
#208=ORIENTED_EDGE('',*,*,#194,.T.) ;
#209=ORIENTED_EDGE('',*,*,#201,.F.) ;
#210=ORIENTED_EDGE('',*,*,#206,.F.) ;
#211=ORIENTED_EDGE('',*,*,#163,.T.) ;
#230=ORIENTED_EDGE('',*,*,#223,.T.) ;
#231=ORIENTED_EDGE('',*,*,#104,.F.) ;
#232=ORIENTED_EDGE('',*,*,#228,.F.) ;
#233=ORIENTED_EDGE('',*,*,#201,.T.) ;
#261=ORIENTED_EDGE('',*,*,#247,.F.) ;
#262=ORIENTED_EDGE('',*,*,#254,.T.) ;
#263=ORIENTED_EDGE('',*,*,#259,.T.) ;
#264=ORIENTED_EDGE('',*,*,#123,.F.) ;
#265=ORIENTED_EDGE('',*,*,#85,.F.) ;
#266=ORIENTED_EDGE('',*,*,#223,.F.) ;
#267=ORIENTED_EDGE('',*,*,#194,.F.) ;
#268=ORIENTED_EDGE('',*,*,#156,.F.) ;
#296=ORIENTED_EDGE('',*,*,#254,.F.) ;
#297=ORIENTED_EDGE('',*,*,#282,.F.) ;
#298=ORIENTED_EDGE('',*,*,#289,.F.) ;
#299=ORIENTED_EDGE('',*,*,#294,.F.) ;
#355=ORIENTED_EDGE('',*,*,#315,.T.) ;
#356=ORIENTED_EDGE('',*,*,#322,.T.) ;
#357=ORIENTED_EDGE('',*,*,#329,.T.) ;
#358=ORIENTED_EDGE('',*,*,#336,.T.) ;
#359=ORIENTED_EDGE('',*,*,#343,.T.) ;
#360=ORIENTED_EDGE('',*,*,#348,.T.) ;
#361=ORIENTED_EDGE('',*,*,#130,.F.) ;
#362=ORIENTED_EDGE('',*,*,#259,.F.) ;
#363=ORIENTED_EDGE('',*,*,#294,.T.) ;
#364=ORIENTED_EDGE('',*,*,#353,.F.) ;
#383=ORIENTED_EDGE('',*,*,#376,.T.) ;
#384=ORIENTED_EDGE('',*,*,#282,.T.) ;
#385=ORIENTED_EDGE('',*,*,#247,.T.) ;
#386=ORIENTED_EDGE('',*,*,#175,.F.) ;
#387=ORIENTED_EDGE('',*,*,#381,.F.) ;
#388=ORIENTED_EDGE('',*,*,#45,.T.) ;
#409=ORIENTED_EDGE('',*,*,#353,.T.) ;
#410=ORIENTED_EDGE('',*,*,#289,.T.) ;
#411=ORIENTED_EDGE('',*,*,#376,.F.) ;
#412=ORIENTED_EDGE('',*,*,#64,.T.) ;
#413=ORIENTED_EDGE('',*,*,#402,.T.) ;
#414=ORIENTED_EDGE('',*,*,#407,.T.) ;
#435=ORIENTED_EDGE('',*,*,#99,.T.) ;
#436=ORIENTED_EDGE('',*,*,#135,.T.) ;
#437=ORIENTED_EDGE('',*,*,#348,.F.) ;
#438=ORIENTED_EDGE('',*,*,#428,.T.) ;
#439=ORIENTED_EDGE('',*,*,#433,.T.) ;
#440=ORIENTED_EDGE('',*,*,#52,.F.) ;
#441=ORIENTED_EDGE('',*,*,#381,.T.) ;
#442=ORIENTED_EDGE('',*,*,#170,.T.) ;
#443=ORIENTED_EDGE('',*,*,#206,.T.) ;
#444=ORIENTED_EDGE('',*,*,#228,.T.) ;
#465=ORIENTED_EDGE('',*,*,#458,.F.) ;
#466=ORIENTED_EDGE('',*,*,#463,.F.) ;
#467=ORIENTED_EDGE('',*,*,#402,.F.) ;
#468=ORIENTED_EDGE('',*,*,#59,.T.) ;
#469=ORIENTED_EDGE('',*,*,#433,.F.) ;
#483=ORIENTED_EDGE('',*,*,#428,.F.) ;
#484=ORIENTED_EDGE('',*,*,#343,.F.) ;
#485=ORIENTED_EDGE('',*,*,#336,.F.) ;
#486=ORIENTED_EDGE('',*,*,#329,.F.) ;
#487=ORIENTED_EDGE('',*,*,#322,.F.) ;
#488=ORIENTED_EDGE('',*,*,#481,.F.) ;
#489=ORIENTED_EDGE('',*,*,#458,.T.) ;
#498=ORIENTED_EDGE('',*,*,#481,.T.) ;
#499=ORIENTED_EDGE('',*,*,#315,.F.) ;
#500=ORIENTED_EDGE('',*,*,#407,.F.) ;
#501=ORIENTED_EDGE('',*,*,#463,.T.) ;
#31=CLOSED_SHELL('Closed Shell',(#71,#111,#142,#182,#213,#235,#270,#301,#366,#390,#416,#446,#471,#491,#503)) ;
#504=ADVANCED_BREP_SHAPE_REPRESENTATION('NONE',(#22),#17) ;
#71=ADVANCED_FACE('NO_CUT',(#70),#36,.F.) ;
#111=ADVANCED_FACE('NO_CUT',(#110),#76,.F.) ;
#142=ADVANCED_FACE('NO_CUT',(#141),#116,.F.) ;
#182=ADVANCED_FACE('NO_CUT',(#181),#147,.F.) ;
#213=ADVANCED_FACE('NO_CUT',(#212),#187,.F.) ;
#235=ADVANCED_FACE('NO_CUT',(#234),#218,.F.) ;
#270=ADVANCED_FACE('NO_CUT',(#269),#240,.F.) ;
#301=ADVANCED_FACE('NO_CUT',(#300),#275,.F.) ;
#366=ADVANCED_FACE('NO_CUT',(#365),#306,.F.) ;
#390=ADVANCED_FACE('NO_CUT',(#389),#371,.F.) ;
#416=ADVANCED_FACE('NO_CUT',(#415),#395,.F.) ;
#446=ADVANCED_FACE('NO_CUT',(#445),#421,.T.) ;
#471=ADVANCED_FACE('NO_CUT',(#470),#451,.T.) ;
#491=ADVANCED_FACE('NO_CUT',(#490),#476,.F.) ;
#503=ADVANCED_FACE('NO_CUT',(#502),#496,.F.) ;
#4=APPLICATION_PROTOCOL_DEFINITION('international standard','automotive_design',2001,#1) ;
#22=MANIFOLD_SOLID_BREP('NO_CUT',#31) ;
#222=CIRCLE('generated circle',#221,0.5) ;
#227=CIRCLE('generated circle',#226,0.5) ;
#23=COLOUR_RGB('Colour',0.501960784314,0.501960784314,0.501960784314) ;
#510=CONSTRUCTIVE_GEOMETRY_REPRESENTATION('supplemental geometry',(#509,#515,#519),#17) ;
#511=CONSTRUCTIVE_GEOMETRY_REPRESENTATION_RELATIONSHIP('supplemental geometry','',#20,#510) ;
#218=CYLINDRICAL_SURFACE('generated cylinder',#217,0.5) ;
#45=EDGE_CURVE('',#42,#44,#40,.T.) ;
#52=EDGE_CURVE('',#42,#51,#49,.T.) ;
#59=EDGE_CURVE('',#58,#51,#56,.T.) ;
#64=EDGE_CURVE('',#44,#58,#63,.T.) ;
#85=EDGE_CURVE('',#82,#84,#80,.T.) ;
#92=EDGE_CURVE('',#91,#84,#89,.T.) ;
#99=EDGE_CURVE('',#98,#91,#96,.T.) ;
#104=EDGE_CURVE('',#98,#82,#103,.T.) ;
#123=EDGE_CURVE('',#84,#122,#120,.T.) ;
#130=EDGE_CURVE('',#122,#129,#127,.T.) ;
#135=EDGE_CURVE('',#91,#129,#134,.T.) ;
#156=EDGE_CURVE('',#153,#155,#151,.T.) ;
#163=EDGE_CURVE('',#162,#155,#160,.T.) ;
#170=EDGE_CURVE('',#169,#162,#167,.T.) ;
#175=EDGE_CURVE('',#169,#153,#174,.T.) ;
#194=EDGE_CURVE('',#155,#193,#191,.T.) ;
#201=EDGE_CURVE('',#200,#193,#198,.T.) ;
#206=EDGE_CURVE('',#162,#200,#205,.T.) ;
#223=EDGE_CURVE('',#193,#82,#222,.T.) ;
#228=EDGE_CURVE('',#200,#98,#227,.T.) ;
#247=EDGE_CURVE('',#246,#153,#244,.T.) ;
#254=EDGE_CURVE('',#246,#253,#251,.T.) ;
#259=EDGE_CURVE('',#253,#122,#258,.T.) ;
#282=EDGE_CURVE('',#281,#246,#279,.T.) ;
#289=EDGE_CURVE('',#288,#281,#286,.T.) ;
#294=EDGE_CURVE('',#253,#288,#293,.T.) ;
#315=EDGE_CURVE('',#312,#314,#310,.T.) ;
#322=EDGE_CURVE('',#314,#321,#319,.T.) ;
#329=EDGE_CURVE('',#321,#328,#326,.T.) ;
#336=EDGE_CURVE('',#328,#335,#333,.T.) ;
#343=EDGE_CURVE('',#335,#342,#340,.T.) ;
#348=EDGE_CURVE('',#342,#129,#347,.T.) ;
#353=EDGE_CURVE('',#312,#288,#352,.T.) ;
#376=EDGE_CURVE('',#44,#281,#375,.T.) ;
#381=EDGE_CURVE('',#42,#169,#380,.T.) ;
#402=EDGE_CURVE('',#58,#401,#399,.T.) ;
#407=EDGE_CURVE('',#401,#312,#406,.T.) ;
#428=EDGE_CURVE('',#342,#427,#425,.T.) ;
#433=EDGE_CURVE('',#427,#51,#432,.T.) ;
#458=EDGE_CURVE('',#457,#427,#455,.T.) ;
#463=EDGE_CURVE('',#401,#457,#462,.T.) ;
#481=EDGE_CURVE('',#457,#314,#480,.T.) ;
#65=EDGE_LOOP('',(#66,#67,#68,#69)) ;
#105=EDGE_LOOP('',(#106,#107,#108,#109)) ;
#136=EDGE_LOOP('',(#137,#138,#139,#140)) ;
#176=EDGE_LOOP('',(#177,#178,#179,#180)) ;
#207=EDGE_LOOP('',(#208,#209,#210,#211)) ;
#229=EDGE_LOOP('',(#230,#231,#232,#233)) ;
#260=EDGE_LOOP('',(#261,#262,#263,#264,#265,#266,#267,#268)) ;
#295=EDGE_LOOP('',(#296,#297,#298,#299)) ;
#354=EDGE_LOOP('',(#355,#356,#357,#358,#359,#360,#361,#362,#363,#364)) ;
#382=EDGE_LOOP('',(#383,#384,#385,#386,#387,#388)) ;
#408=EDGE_LOOP('',(#409,#410,#411,#412,#413,#414)) ;
#434=EDGE_LOOP('',(#435,#436,#437,#438,#439,#440,#441,#442,#443,#444)) ;
#464=EDGE_LOOP('',(#465,#466,#467,#468,#469)) ;
#482=EDGE_LOOP('',(#483,#484,#485,#486,#487,#488,#489)) ;
#497=EDGE_LOOP('',(#498,#499,#500,#501)) ;
#70=FACE_OUTER_BOUND('',#65,.T.) ;
#110=FACE_OUTER_BOUND('',#105,.T.) ;
#141=FACE_OUTER_BOUND('',#136,.T.) ;
#181=FACE_OUTER_BOUND('',#176,.T.) ;
#212=FACE_OUTER_BOUND('',#207,.T.) ;
#234=FACE_OUTER_BOUND('',#229,.T.) ;
#269=FACE_OUTER_BOUND('',#260,.T.) ;
#300=FACE_OUTER_BOUND('',#295,.T.) ;
#365=FACE_OUTER_BOUND('',#354,.T.) ;
#389=FACE_OUTER_BOUND('',#382,.T.) ;
#415=FACE_OUTER_BOUND('',#408,.T.) ;
#445=FACE_OUTER_BOUND('',#434,.T.) ;
#470=FACE_OUTER_BOUND('',#464,.T.) ;
#490=FACE_OUTER_BOUND('',#482,.T.) ;
#502=FACE_OUTER_BOUND('',#497,.T.) ;
#40=LINE('Line',#37,#39) ;
#49=LINE('Line',#46,#48) ;
#56=LINE('Line',#53,#55) ;
#63=LINE('Line',#60,#62) ;
#80=LINE('Line',#77,#79) ;
#89=LINE('Line',#86,#88) ;
#96=LINE('Line',#93,#95) ;
#103=LINE('Line',#100,#102) ;
#120=LINE('Line',#117,#119) ;
#127=LINE('Line',#124,#126) ;
#134=LINE('Line',#131,#133) ;
#151=LINE('Line',#148,#150) ;
#160=LINE('Line',#157,#159) ;
#167=LINE('Line',#164,#166) ;
#174=LINE('Line',#171,#173) ;
#191=LINE('Line',#188,#190) ;
#198=LINE('Line',#195,#197) ;
#205=LINE('Line',#202,#204) ;
#244=LINE('Line',#241,#243) ;
#251=LINE('Line',#248,#250) ;
#258=LINE('Line',#255,#257) ;
#279=LINE('Line',#276,#278) ;
#286=LINE('Line',#283,#285) ;
#293=LINE('Line',#290,#292) ;
#310=LINE('Line',#307,#309) ;
#319=LINE('Line',#316,#318) ;
#326=LINE('Line',#323,#325) ;
#333=LINE('Line',#330,#332) ;
#340=LINE('Line',#337,#339) ;
#347=LINE('Line',#344,#346) ;
#352=LINE('Line',#349,#351) ;
#375=LINE('Line',#372,#374) ;
#380=LINE('Line',#377,#379) ;
#399=LINE('Line',#396,#398) ;
#406=LINE('Line',#403,#405) ;
#425=LINE('Line',#422,#424) ;
#432=LINE('Line',#429,#431) ;
#455=LINE('Line',#452,#454) ;
#462=LINE('Line',#459,#461) ;
#480=LINE('Line',#477,#479) ;
#36=PLANE('',#35) ;
#76=PLANE('',#75) ;
#116=PLANE('',#115) ;
#147=PLANE('',#146) ;
#187=PLANE('',#186) ;
#240=PLANE('',#239) ;
#275=PLANE('',#274) ;
#306=PLANE('',#305) ;
#371=PLANE('',#370) ;
#395=PLANE('',#394) ;
#421=PLANE('',#420) ;
#451=PLANE('',#450) ;
#476=PLANE('',#475) ;
#496=PLANE('',#495) ;
#14=PLANE_ANGLE_MEASURE_WITH_UNIT(PLANE_ANGLE_MEASURE(0.0174532925199),#13) ;
#9=PRODUCT_CATEGORY_RELATIONSHIP(' ',' ',#7,#8) ;
#6=PRODUCT_DEFINITION_FORMATION_WITH_SPECIFIED_SOURCE('',' ',#5,.NOT_KNOWN.) ;
#21=SHAPE_DEFINITION_REPRESENTATION(#11,#20) ;
#42=VERTEX_POINT('',#41) ;
#44=VERTEX_POINT('',#43) ;
#51=VERTEX_POINT('',#50) ;
#58=VERTEX_POINT('',#57) ;
#82=VERTEX_POINT('',#81) ;
#84=VERTEX_POINT('',#83) ;
#91=VERTEX_POINT('',#90) ;
#98=VERTEX_POINT('',#97) ;
#122=VERTEX_POINT('',#121) ;
#129=VERTEX_POINT('',#128) ;
#153=VERTEX_POINT('',#152) ;
#155=VERTEX_POINT('',#154) ;
#162=VERTEX_POINT('',#161) ;
#169=VERTEX_POINT('',#168) ;
#193=VERTEX_POINT('',#192) ;
#200=VERTEX_POINT('',#199) ;
#246=VERTEX_POINT('',#245) ;
#253=VERTEX_POINT('',#252) ;
#281=VERTEX_POINT('',#280) ;
#288=VERTEX_POINT('',#287) ;
#312=VERTEX_POINT('',#311) ;
#314=VERTEX_POINT('',#313) ;
#321=VERTEX_POINT('',#320) ;
#328=VERTEX_POINT('',#327) ;
#335=VERTEX_POINT('',#334) ;
#342=VERTEX_POINT('',#341) ;
#401=VERTEX_POINT('',#400) ;
#427=VERTEX_POINT('',#426) ;
#457=VERTEX_POINT('',#456) ;
#12=(LENGTH_UNIT()NAMED_UNIT(*)SI_UNIT(.MILLI.,.METRE.)) ;
#13=(NAMED_UNIT(*)PLANE_ANGLE_UNIT()SI_UNIT($,.RADIAN.)) ;
#15=(NAMED_UNIT(*)SI_UNIT($,.STERADIAN.)SOLID_ANGLE_UNIT()) ;
#17=(GEOMETRIC_REPRESENTATION_CONTEXT(3)GLOBAL_UNCERTAINTY_ASSIGNED_CONTEXT((#16))GLOBAL_UNIT_ASSIGNED_CONTEXT((#12,#13,#15))REPRESENTATION_CONTEXT(' ',' ')) ;
ENDSEC;
END-ISO-10303-21;
