ISO-10303-21;
HEADER;
FILE_DESCRIPTION (( 'STEP AP214' ),
    '1' );
FILE_NAME ('PTFE Boot.STEP',
    '2024-12-05T10:03:39',
    ( '' ),
    ( '' ),
    'SwSTEP 2.0',
    'SolidWorks 2020',
    '' );
FILE_SCHEMA (( 'AUTOMOTIVE_DESIGN' ));
ENDSEC;

DATA;
#1 = COLOUR_RGB ( '',0.7921568627450980005, 0.8196078431372548767, 0.9333333333333333481 ) ;
#2 = FACE_BOUND ( 'NONE', #221, .T. ) ;
#3 = EDGE_CURVE ( 'NONE', #72, #175, #283, .T. ) ;
#4 = AXIS2_PLACEMENT_3D ( 'NONE', #294, #247, #16 ) ;
#5 = SHAPE_DEFINITION_REPRESENTATION ( #186, #246 ) ;
#6 = AXIS2_PLACEMENT_3D ( 'NONE', #76, #123, #239 ) ;
#7 = CLOSED_SHELL ( 'NONE', ( #9, #148, #180, #112, #92, #94, #125, #226, #189 ) ) ;
#8 = ORIENTED_EDGE ( 'NONE', *, *, #136, .T. ) ;
#9 = ADVANCED_FACE ( 'NONE', ( #185 ), #114, .T. ) ;
#10 = DIRECTION ( 'NONE',  ( -0.000000000000000000, -0.000000000000000000, -1.000000000000000000 ) ) ;
#11 = SURFACE_SIDE_STYLE ('',( #167 ) ) ;
#12 = AXIS2_PLACEMENT_3D ( 'NONE', #172, #130, #91 ) ;
#13 = CARTESIAN_POINT ( 'NONE',  ( -2.149999999999999911, 0.000000000000000000, 6.000000000000000000 ) ) ;
#14 = ORIENTED_EDGE ( 'NONE', *, *, #291, .F. ) ;
#15 =( NAMED_UNIT ( * ) SI_UNIT ( $, .STERADIAN. ) SOLID_ANGLE_UNIT ( ) );
#16 = DIRECTION ( 'NONE',  ( 1.000000000000000000, 0.000000000000000000, -0.000000000000000000 ) ) ;
#17 = ORIENTED_EDGE ( 'NONE', *, *, #249, .F. ) ;
#18 = CYLINDRICAL_SURFACE ( 'NONE', #207, 3.000000000000000444 ) ;
#19 = FACE_BOUND ( 'NONE', #25, .T. ) ;
#20 = CARTESIAN_POINT ( 'NONE',  ( -3.000000000000000444, 0.000000000000000000, 0.000000000000000000 ) ) ;
#21 = AXIS2_PLACEMENT_3D ( 'NONE', #93, #259, #231 ) ;
#22 = PRODUCT_DEFINITION ( 'UNKNOWN', '', #279, #38 ) ;
#23 = CIRCLE ( 'NONE', #42, 3.000000000000000444 ) ;
#24 = ORIENTED_EDGE ( 'NONE', *, *, #278, .T. ) ;
#25 = EDGE_LOOP ( 'NONE', ( #95, #188 ) ) ;
#26 = DIRECTION ( 'NONE',  ( -1.000000000000000000, 0.000000000000000000, 0.000000000000000000 ) ) ;
#27 = DIRECTION ( 'NONE',  ( 1.000000000000000000, 0.000000000000000000, 0.000000000000000000 ) ) ;
#28 = DIRECTION ( 'NONE',  ( 1.000000000000000000, 0.000000000000000000, 0.000000000000000000 ) ) ;
#29 = VECTOR ( 'NONE', #10, 1000.000000000000000 ) ;
#30 = STYLED_ITEM ( 'NONE', ( #129 ), #277 ) ;
#31 = EDGE_LOOP ( 'NONE', ( #8, #124 ) ) ;
#32 = DIRECTION ( 'NONE',  ( -1.000000000000000000, 0.000000000000000000, 0.000000000000000000 ) ) ;
#33 = FILL_AREA_STYLE_COLOUR ( '', #272 ) ;
#34 = CIRCLE ( 'NONE', #214, 3.000000000000000444 ) ;
#35 = CARTESIAN_POINT ( 'NONE',  ( 0.000000000000000000, 0.000000000000000000, 0.000000000000000000 ) ) ;
#36 =( LENGTH_UNIT ( ) NAMED_UNIT ( * ) SI_UNIT ( .MILLI., .METRE. ) );
#37 = CARTESIAN_POINT ( 'NONE',  ( 0.000000000000000000, 0.000000000000000000, 6.000000000000000000 ) ) ;
#38 = PRODUCT_DEFINITION_CONTEXT ( 'detailed design', #68, 'design' ) ;
#39 = SURFACE_STYLE_USAGE ( .BOTH. , #137 ) ;
#40 = EDGE_CURVE ( 'NONE', #158, #119, #34, .T. ) ;
#41 = FACE_OUTER_BOUND ( 'NONE', #161, .T. ) ;
#42 = AXIS2_PLACEMENT_3D ( 'NONE', #156, #62, #250 ) ;
#43 = ORIENTED_EDGE ( 'NONE', *, *, #140, .T. ) ;
#44 = ORIENTED_EDGE ( 'NONE', *, *, #145, .T. ) ;
#45 = PLANE ( 'NONE',  #21 ) ;
#46 = ORIENTED_EDGE ( 'NONE', *, *, #216, .T. ) ;
#47 = AXIS2_PLACEMENT_3D ( 'NONE', #286, #84, #205 ) ;
#48 = EDGE_CURVE ( 'NONE', #256, #228, #97, .T. ) ;
#49 = DIRECTION ( 'NONE',  ( -1.000000000000000000, 0.000000000000000000, 0.000000000000000000 ) ) ;
#50 = ORIENTED_EDGE ( 'NONE', *, *, #237, .F. ) ;
#51 = ORIENTED_EDGE ( 'NONE', *, *, #73, .T. ) ;
#52 = PRODUCT ( 'PTFE Boot', 'PTFE Boot', '', ( #213 ) ) ;
#53 = CIRCLE ( 'NONE', #271, 2.149999999999999911 ) ;
#54 = SURFACE_STYLE_USAGE ( .BOTH. , #11 ) ;
#55 = FILL_AREA_STYLE_COLOUR ( '', #1 ) ;
#56 = EDGE_CURVE ( 'NONE', #227, #115, #255, .T. ) ;
#57 = MECHANICAL_DESIGN_GEOMETRIC_PRESENTATION_REPRESENTATION (  '', ( #30 ), #230 ) ;
#58 = ORIENTED_EDGE ( 'NONE', *, *, #40, .F. ) ;
#59 = FACE_OUTER_BOUND ( 'NONE', #143, .T. ) ;
#60 = CARTESIAN_POINT ( 'NONE',  ( -2.149999999999999911, 0.000000000000000000, 10.00000000000000000 ) ) ;
#61 = PLANE ( 'NONE',  #252 ) ;
#62 = DIRECTION ( 'NONE',  ( 0.000000000000000000, 0.000000000000000000, 1.000000000000000000 ) ) ;
#63 = CYLINDRICAL_SURFACE ( 'NONE', #88, 3.000000000000000444 ) ;
#64 = CARTESIAN_POINT ( 'NONE',  ( 0.000000000000000000, 0.000000000000000000, 6.000000000000000000 ) ) ;
#65 =( NAMED_UNIT ( * ) PLANE_ANGLE_UNIT ( ) SI_UNIT ( $, .RADIAN. ) );
#66 = FACE_OUTER_BOUND ( 'NONE', #170, .T. ) ;
#67 = DIRECTION ( 'NONE',  ( 0.000000000000000000, 0.000000000000000000, 1.000000000000000000 ) ) ;
#68 = APPLICATION_CONTEXT ( 'automotive_design' ) ;
#69 = CIRCLE ( 'NONE', #160, 3.500000000000000000 ) ;
#70 = EDGE_LOOP ( 'NONE', ( #14, #131 ) ) ;
#71 = AXIS2_PLACEMENT_3D ( 'NONE', #37, #102, #32 ) ;
#72 = VERTEX_POINT ( 'NONE', #281 ) ;
#73 = EDGE_CURVE ( 'NONE', #144, #256, #121, .T. ) ;
#74 =( NAMED_UNIT ( * ) PLANE_ANGLE_UNIT ( ) SI_UNIT ( $, .RADIAN. ) );
#75 =( GEOMETRIC_REPRESENTATION_CONTEXT ( 3 ) GLOBAL_UNCERTAINTY_ASSIGNED_CONTEXT ( ( #248 ) ) GLOBAL_UNIT_ASSIGNED_CONTEXT ( ( #282, #74, #77 ) ) REPRESENTATION_CONTEXT ( 'NONE', 'WORKASPACE' ) );
#76 = CARTESIAN_POINT ( 'NONE',  ( 0.000000000000000000, 0.000000000000000000, 0.000000000000000000 ) ) ;
#77 =( NAMED_UNIT ( * ) SI_UNIT ( $, .STERADIAN. ) SOLID_ANGLE_UNIT ( ) );
#78 = CARTESIAN_POINT ( 'NONE',  ( 0.000000000000000000, 0.000000000000000000, 10.00000000000000000 ) ) ;
#79 = ORIENTED_EDGE ( 'NONE', *, *, #3, .F. ) ;
#80 = AXIS2_PLACEMENT_3D ( 'NONE', #197, #261, #225 ) ;
#81 = VECTOR ( 'NONE', #177, 1000.000000000000000 ) ;
#82 = FACE_OUTER_BOUND ( 'NONE', #184, .T. ) ;
#83 = DIRECTION ( 'NONE',  ( -0.000000000000000000, -0.000000000000000000, -1.000000000000000000 ) ) ;
#84 = DIRECTION ( 'NONE',  ( -0.000000000000000000, -0.000000000000000000, -1.000000000000000000 ) ) ;
#85 = UNCERTAINTY_MEASURE_WITH_UNIT (LENGTH_MEASURE( 1.000000000000000082E-05 ), #181, 'distance_accuracy_value', 'NONE');
#86 = FACE_OUTER_BOUND ( 'NONE', #223, .T. ) ;
#87 = AXIS2_PLACEMENT_3D ( 'NONE', #100, #238, #191 ) ;
#88 = AXIS2_PLACEMENT_3D ( 'NONE', #195, #265, #263 ) ;
#89 = DIRECTION ( 'NONE',  ( 0.000000000000000000, 0.000000000000000000, 1.000000000000000000 ) ) ;
#90 = CARTESIAN_POINT ( 'NONE',  ( -3.000000000000000444, 0.000000000000000000, 6.000000000000000000 ) ) ;
#91 = DIRECTION ( 'NONE',  ( 1.000000000000000000, 0.000000000000000000, 0.000000000000000000 ) ) ;
#92 = ADVANCED_FACE ( 'NONE', ( #59 ), #18, .T. ) ;
#93 = CARTESIAN_POINT ( 'NONE',  ( 0.000000000000000000, 0.000000000000000000, 0.000000000000000000 ) ) ;
#94 = ADVANCED_FACE ( 'NONE', ( #86 ), #266, .F. ) ;
#95 = ORIENTED_EDGE ( 'NONE', *, *, #73, .F. ) ;
#96 = AXIS2_PLACEMENT_3D ( 'NONE', #64, #270, #26 ) ;
#97 = LINE ( 'NONE', #126, #29 ) ;
#98 = STYLED_ITEM ( 'NONE', ( #149 ), #246 ) ;
#99 = EDGE_CURVE ( 'NONE', #256, #144, #53, .T. ) ;
#100 = CARTESIAN_POINT ( 'NONE',  ( 0.000000000000000000, 0.000000000000000000, 0.000000000000000000 ) ) ;
#101 = DIRECTION ( 'NONE',  ( 0.000000000000000000, 0.000000000000000000, 1.000000000000000000 ) ) ;
#102 = DIRECTION ( 'NONE',  ( -0.000000000000000000, -0.000000000000000000, -1.000000000000000000 ) ) ;
#103 = AXIS2_PLACEMENT_3D ( 'NONE', #241, #67, #153 ) ;
#104 = CARTESIAN_POINT ( 'NONE',  ( -3.500000000000000000, 0.000000000000000000, 10.00000000000000000 ) ) ;
#105 = ORIENTED_EDGE ( 'NONE', *, *, #216, .F. ) ;
#106 = CARTESIAN_POINT ( 'NONE',  ( -3.500000000000000000, 0.000000000000000000, 6.000000000000000000 ) ) ;
#107 = CARTESIAN_POINT ( 'NONE',  ( 3.000000000000000444, 3.673940397442060361E-16, 6.000000000000000000 ) ) ;
#108 = UNCERTAINTY_MEASURE_WITH_UNIT (LENGTH_MEASURE( 1.000000000000000082E-05 ), #36, 'distance_accuracy_value', 'NONE');
#109 = CARTESIAN_POINT ( 'NONE',  ( 0.000000000000000000, 0.000000000000000000, 6.000000000000000000 ) ) ;
#110 = CIRCLE ( 'NONE', #212, 2.149999999999999911 ) ;
#111 = CARTESIAN_POINT ( 'NONE',  ( 3.000000000000000444, 3.673940397442060361E-16, 6.000000000000000000 ) ) ;
#112 = ADVANCED_FACE ( 'NONE', ( #142, #2 ), #45, .F. ) ;
#113 = ORIENTED_EDGE ( 'NONE', *, *, #99, .T. ) ;
#114 = CYLINDRICAL_SURFACE ( 'NONE', #117, 3.500000000000000000 ) ;
#115 = VERTEX_POINT ( 'NONE', #20 ) ;
#116 = ORIENTED_EDGE ( 'NONE', *, *, #257, .T. ) ;
#117 = AXIS2_PLACEMENT_3D ( 'NONE', #208, #162, #49 ) ;
#118 = DIRECTION ( 'NONE',  ( 0.000000000000000000, 0.000000000000000000, 1.000000000000000000 ) ) ;
#119 = VERTEX_POINT ( 'NONE', #217 ) ;
#120 = MECHANICAL_DESIGN_GEOMETRIC_PRESENTATION_REPRESENTATION (  '', ( #98 ), #75 ) ;
#121 = CIRCLE ( 'NONE', #211, 2.149999999999999911 ) ;
#122 = VECTOR ( 'NONE', #83, 1000.000000000000000 ) ;
#123 = DIRECTION ( 'NONE',  ( 0.000000000000000000, 0.000000000000000000, 1.000000000000000000 ) ) ;
#124 = ORIENTED_EDGE ( 'NONE', *, *, #40, .T. ) ;
#125 = ADVANCED_FACE ( 'NONE', ( #82, #19 ), #240, .T. ) ;
#126 = CARTESIAN_POINT ( 'NONE',  ( 2.149999999999999911, 2.632990618166809235E-16, 6.000000000000000000 ) ) ;
#127 = APPLICATION_PROTOCOL_DEFINITION ( 'draft international standard', 'automotive_design', 1998, #190 ) ;
#128 = LINE ( 'NONE', #104, #81 ) ;
#129 = PRESENTATION_STYLE_ASSIGNMENT (( #39 ) ) ;
#130 = DIRECTION ( 'NONE',  ( 0.000000000000000000, 0.000000000000000000, 1.000000000000000000 ) ) ;
#131 = ORIENTED_EDGE ( 'NONE', *, *, #56, .F. ) ;
#132 = DIRECTION ( 'NONE',  ( -0.000000000000000000, -0.000000000000000000, -1.000000000000000000 ) ) ;
#133 = SURFACE_STYLE_FILL_AREA ( #262 ) ;
#134 = DIRECTION ( 'NONE',  ( 1.000000000000000000, 0.000000000000000000, 0.000000000000000000 ) ) ;
#135 = ORIENTED_EDGE ( 'NONE', *, *, #233, .T. ) ;
#136 = EDGE_CURVE ( 'NONE', #119, #158, #171, .T. ) ;
#137 = SURFACE_SIDE_STYLE ('',( #133 ) ) ;
#138 = CYLINDRICAL_SURFACE ( 'NONE', #71, 2.149999999999999911 ) ;
#139 =( GEOMETRIC_REPRESENTATION_CONTEXT ( 3 ) GLOBAL_UNCERTAINTY_ASSIGNED_CONTEXT ( ( #108 ) ) GLOBAL_UNIT_ASSIGNED_CONTEXT ( ( #36, #65, #201 ) ) REPRESENTATION_CONTEXT ( 'NONE', 'WORKASPACE' ) );
#140 = EDGE_CURVE ( 'NONE', #175, #72, #251, .T. ) ;
#141 = ORIENTED_EDGE ( 'NONE', *, *, #233, .F. ) ;
#142 = FACE_OUTER_BOUND ( 'NONE', #70, .T. ) ;
#143 = EDGE_LOOP ( 'NONE', ( #50, #168, #275, #243 ) ) ;
#144 = VERTEX_POINT ( 'NONE', #60 ) ;
#145 = EDGE_CURVE ( 'NONE', #163, #258, #146, .T. ) ;
#146 = CIRCLE ( 'NONE', #147, 3.500000000000000000 ) ;
#147 = AXIS2_PLACEMENT_3D ( 'NONE', #220, #202, #159 ) ;
#148 = ADVANCED_FACE ( 'NONE', ( #41 ), #138, .F. ) ;
#149 = PRESENTATION_STYLE_ASSIGNMENT (( #54 ) ) ;
#150 = VECTOR ( 'NONE', #264, 1000.000000000000000 ) ;
#151 = APPLICATION_PROTOCOL_DEFINITION ( 'draft international standard', 'automotive_design', 1998, #68 ) ;
#152 = FACE_OUTER_BOUND ( 'NONE', #178, .T. ) ;
#153 = DIRECTION ( 'NONE',  ( 1.000000000000000000, 0.000000000000000000, 0.000000000000000000 ) ) ;
#154 = CARTESIAN_POINT ( 'NONE',  ( 0.000000000000000000, 0.000000000000000000, 6.000000000000000000 ) ) ;
#155 = ORIENTED_EDGE ( 'NONE', *, *, #193, .T. ) ;
#156 = CARTESIAN_POINT ( 'NONE',  ( 0.000000000000000000, 0.000000000000000000, 0.000000000000000000 ) ) ;
#157 = DIRECTION ( 'NONE',  ( 1.000000000000000000, 0.000000000000000000, -0.000000000000000000 ) ) ;
#158 = VERTEX_POINT ( 'NONE', #111 ) ;
#159 = DIRECTION ( 'NONE',  ( 1.000000000000000000, 0.000000000000000000, 0.000000000000000000 ) ) ;
#160 = AXIS2_PLACEMENT_3D ( 'NONE', #293, #173, #287 ) ;
#161 = EDGE_LOOP ( 'NONE', ( #51, #236, #232, #206 ) ) ;
#162 = DIRECTION ( 'NONE',  ( -0.000000000000000000, -0.000000000000000000, -1.000000000000000000 ) ) ;
#163 = VERTEX_POINT ( 'NONE', #199 ) ;
#164 = PRESENTATION_LAYER_ASSIGNMENT (  '', '', ( #30 ) ) ;
#165 = CARTESIAN_POINT ( 'NONE',  ( 0.000000000000000000, 0.000000000000000000, 6.000000000000000000 ) ) ;
#166 = PRESENTATION_LAYER_ASSIGNMENT (  '', '', ( #98 ) ) ;
#167 = SURFACE_STYLE_FILL_AREA ( #194 ) ;
#168 = ORIENTED_EDGE ( 'NONE', *, *, #136, .F. ) ;
#169 = DIRECTION ( 'NONE',  ( 1.000000000000000000, 0.000000000000000000, 0.000000000000000000 ) ) ;
#170 = EDGE_LOOP ( 'NONE', ( #289, #79 ) ) ;
#171 = CIRCLE ( 'NONE', #80, 3.000000000000000444 ) ;
#172 = CARTESIAN_POINT ( 'NONE',  ( 0.000000000000000000, 0.000000000000000000, 6.000000000000000000 ) ) ;
#173 = DIRECTION ( 'NONE',  ( 0.000000000000000000, 0.000000000000000000, 1.000000000000000000 ) ) ;
#174 = FACE_BOUND ( 'NONE', #31, .T. ) ;
#175 = VERTEX_POINT ( 'NONE', #106 ) ;
#176 = DIRECTION ( 'NONE',  ( -0.000000000000000000, -0.000000000000000000, -1.000000000000000000 ) ) ;
#177 = DIRECTION ( 'NONE',  ( -0.000000000000000000, -0.000000000000000000, -1.000000000000000000 ) ) ;
#178 = EDGE_LOOP ( 'NONE', ( #209, #273, #46, #43 ) ) ;
#179 = DIRECTION ( 'NONE',  ( 0.000000000000000000, 0.000000000000000000, 1.000000000000000000 ) ) ;
#180 = ADVANCED_FACE ( 'NONE', ( #288 ), #63, .T. ) ;
#181 =( LENGTH_UNIT ( ) NAMED_UNIT ( * ) SI_UNIT ( .MILLI., .METRE. ) );
#182 = EDGE_LOOP ( 'NONE', ( #17, #24, #254, #105 ) ) ;
#183 = CARTESIAN_POINT ( 'NONE',  ( 0.000000000000000000, 0.000000000000000000, 10.00000000000000000 ) ) ;
#184 = EDGE_LOOP ( 'NONE', ( #44, #245 ) ) ;
#185 = FACE_OUTER_BOUND ( 'NONE', #182, .T. ) ;
#186 = PRODUCT_DEFINITION_SHAPE ( 'NONE', 'NONE',  #22 ) ;
#187 = CARTESIAN_POINT ( 'NONE',  ( 0.000000000000000000, 0.000000000000000000, 6.000000000000000000 ) ) ;
#188 = ORIENTED_EDGE ( 'NONE', *, *, #99, .F. ) ;
#189 = ADVANCED_FACE ( 'NONE', ( #152 ), #268, .T. ) ;
#190 = APPLICATION_CONTEXT ( 'automotive_design' ) ;
#191 = DIRECTION ( 'NONE',  ( 1.000000000000000000, 0.000000000000000000, 0.000000000000000000 ) ) ;
#192 = ORIENTED_EDGE ( 'NONE', *, *, #56, .T. ) ;
#193 = EDGE_CURVE ( 'NONE', #144, #260, #284, .T. ) ;
#194 = FILL_AREA_STYLE ('',( #55 ) ) ;
#195 = CARTESIAN_POINT ( 'NONE',  ( 0.000000000000000000, 0.000000000000000000, 6.000000000000000000 ) ) ;
#196 = CIRCLE ( 'NONE', #103, 2.149999999999999911 ) ;
#197 = CARTESIAN_POINT ( 'NONE',  ( 0.000000000000000000, 0.000000000000000000, 6.000000000000000000 ) ) ;
#198 = LINE ( 'NONE', #204, #203 ) ;
#199 = CARTESIAN_POINT ( 'NONE',  ( -3.500000000000000000, 0.000000000000000000, 10.00000000000000000 ) ) ;
#200 = DIRECTION ( 'NONE',  ( -1.000000000000000000, 0.000000000000000000, 0.000000000000000000 ) ) ;
#201 =( NAMED_UNIT ( * ) SI_UNIT ( $, .STERADIAN. ) SOLID_ANGLE_UNIT ( ) );
#202 = DIRECTION ( 'NONE',  ( 0.000000000000000000, 0.000000000000000000, 1.000000000000000000 ) ) ;
#203 = VECTOR ( 'NONE', #176, 1000.000000000000000 ) ;
#204 = CARTESIAN_POINT ( 'NONE',  ( 3.500000000000000000, 4.286263797015736595E-16, 10.00000000000000000 ) ) ;
#205 = DIRECTION ( 'NONE',  ( -1.000000000000000000, 0.000000000000000000, 0.000000000000000000 ) ) ;
#206 = ORIENTED_EDGE ( 'NONE', *, *, #193, .F. ) ;
#207 = AXIS2_PLACEMENT_3D ( 'NONE', #109, #132, #200 ) ;
#208 = CARTESIAN_POINT ( 'NONE',  ( 0.000000000000000000, 0.000000000000000000, 10.00000000000000000 ) ) ;
#209 = ORIENTED_EDGE ( 'NONE', *, *, #278, .F. ) ;
#210 = PRODUCT_RELATED_PRODUCT_CATEGORY ( 'part', '', ( #52 ) ) ;
#211 = AXIS2_PLACEMENT_3D ( 'NONE', #78, #101, #169 ) ;
#212 = AXIS2_PLACEMENT_3D ( 'NONE', #35, #179, #134 ) ;
#213 = PRODUCT_CONTEXT ( 'NONE', #190, 'mechanical' ) ;
#214 = AXIS2_PLACEMENT_3D ( 'NONE', #187, #229, #28 ) ;
#215 = ORIENTED_EDGE ( 'NONE', *, *, #280, .F. ) ;
#216 = EDGE_CURVE ( 'NONE', #163, #175, #128, .T. ) ;
#217 = CARTESIAN_POINT ( 'NONE',  ( -3.000000000000000444, 0.000000000000000000, 6.000000000000000000 ) ) ;
#218 = ORIENTED_EDGE ( 'NONE', *, *, #237, .T. ) ;
#219 = CARTESIAN_POINT ( 'NONE',  ( -2.149999999999999911, 0.000000000000000000, 0.000000000000000000 ) ) ;
#220 = CARTESIAN_POINT ( 'NONE',  ( 0.000000000000000000, 0.000000000000000000, 10.00000000000000000 ) ) ;
#221 = EDGE_LOOP ( 'NONE', ( #116, #135 ) ) ;
#222 = LINE ( 'NONE', #107, #292 ) ;
#223 = EDGE_LOOP ( 'NONE', ( #234, #113, #155, #141 ) ) ;
#224 = LINE ( 'NONE', #90, #150 ) ;
#225 = DIRECTION ( 'NONE',  ( 1.000000000000000000, 0.000000000000000000, 0.000000000000000000 ) ) ;
#226 = ADVANCED_FACE ( 'NONE', ( #174, #66 ), #61, .F. ) ;
#227 = VERTEX_POINT ( 'NONE', #242 ) ;
#228 = VERTEX_POINT ( 'NONE', #244 ) ;
#229 = DIRECTION ( 'NONE',  ( 0.000000000000000000, 0.000000000000000000, 1.000000000000000000 ) ) ;
#230 =( GEOMETRIC_REPRESENTATION_CONTEXT ( 3 ) GLOBAL_UNCERTAINTY_ASSIGNED_CONTEXT ( ( #85 ) ) GLOBAL_UNIT_ASSIGNED_CONTEXT ( ( #181, #267, #15 ) ) REPRESENTATION_CONTEXT ( 'NONE', 'WORKASPACE' ) );
#231 = DIRECTION ( 'NONE',  ( 1.000000000000000000, 0.000000000000000000, -0.000000000000000000 ) ) ;
#232 = ORIENTED_EDGE ( 'NONE', *, *, #257, .F. ) ;
#233 = EDGE_CURVE ( 'NONE', #228, #260, #110, .T. ) ;
#234 = ORIENTED_EDGE ( 'NONE', *, *, #48, .F. ) ;
#235 = AXIS2_PLACEMENT_3D ( 'NONE', #165, #118, #27 ) ;
#236 = ORIENTED_EDGE ( 'NONE', *, *, #48, .T. ) ;
#237 = EDGE_CURVE ( 'NONE', #158, #227, #222, .T. ) ;
#238 = DIRECTION ( 'NONE',  ( 0.000000000000000000, 0.000000000000000000, 1.000000000000000000 ) ) ;
#239 = DIRECTION ( 'NONE',  ( 1.000000000000000000, 0.000000000000000000, 0.000000000000000000 ) ) ;
#240 = PLANE ( 'NONE',  #4 ) ;
#241 = CARTESIAN_POINT ( 'NONE',  ( 0.000000000000000000, 0.000000000000000000, 0.000000000000000000 ) ) ;
#242 = CARTESIAN_POINT ( 'NONE',  ( 3.000000000000000444, 3.673940397442060361E-16, 0.000000000000000000 ) ) ;
#243 = ORIENTED_EDGE ( 'NONE', *, *, #291, .T. ) ;
#244 = CARTESIAN_POINT ( 'NONE',  ( 2.149999999999999911, 2.632990618166809235E-16, 0.000000000000000000 ) ) ;
#245 = ORIENTED_EDGE ( 'NONE', *, *, #249, .T. ) ;
#246 = ADVANCED_BREP_SHAPE_REPRESENTATION ( 'PTFE Boot', ( #277, #6 ), #139 ) ;
#247 = DIRECTION ( 'NONE',  ( 0.000000000000000000, 0.000000000000000000, 1.000000000000000000 ) ) ;
#248 = UNCERTAINTY_MEASURE_WITH_UNIT (LENGTH_MEASURE( 1.000000000000000082E-05 ), #282, 'distance_accuracy_value', 'NONE');
#249 = EDGE_CURVE ( 'NONE', #258, #163, #69, .T. ) ;
#250 = DIRECTION ( 'NONE',  ( 1.000000000000000000, 0.000000000000000000, 0.000000000000000000 ) ) ;
#251 = CIRCLE ( 'NONE', #12, 3.500000000000000000 ) ;
#252 = AXIS2_PLACEMENT_3D ( 'NONE', #154, #89, #157 ) ;
#253 = DIRECTION ( 'NONE',  ( 1.000000000000000000, 0.000000000000000000, 0.000000000000000000 ) ) ;
#254 = ORIENTED_EDGE ( 'NONE', *, *, #3, .T. ) ;
#255 = CIRCLE ( 'NONE', #87, 3.000000000000000444 ) ;
#256 = VERTEX_POINT ( 'NONE', #269 ) ;
#257 = EDGE_CURVE ( 'NONE', #260, #228, #196, .T. ) ;
#258 = VERTEX_POINT ( 'NONE', #285 ) ;
#259 = DIRECTION ( 'NONE',  ( 0.000000000000000000, 0.000000000000000000, 1.000000000000000000 ) ) ;
#260 = VERTEX_POINT ( 'NONE', #219 ) ;
#261 = DIRECTION ( 'NONE',  ( 0.000000000000000000, 0.000000000000000000, 1.000000000000000000 ) ) ;
#262 = FILL_AREA_STYLE ('',( #33 ) ) ;
#263 = DIRECTION ( 'NONE',  ( -1.000000000000000000, 0.000000000000000000, 0.000000000000000000 ) ) ;
#264 = DIRECTION ( 'NONE',  ( -0.000000000000000000, -0.000000000000000000, -1.000000000000000000 ) ) ;
#265 = DIRECTION ( 'NONE',  ( -0.000000000000000000, -0.000000000000000000, -1.000000000000000000 ) ) ;
#266 = CYLINDRICAL_SURFACE ( 'NONE', #96, 2.149999999999999911 ) ;
#267 =( NAMED_UNIT ( * ) PLANE_ANGLE_UNIT ( ) SI_UNIT ( $, .RADIAN. ) );
#268 = CYLINDRICAL_SURFACE ( 'NONE', #47, 3.500000000000000000 ) ;
#269 = CARTESIAN_POINT ( 'NONE',  ( 2.149999999999999911, 2.632990618166809235E-16, 10.00000000000000000 ) ) ;
#270 = DIRECTION ( 'NONE',  ( -0.000000000000000000, -0.000000000000000000, -1.000000000000000000 ) ) ;
#271 = AXIS2_PLACEMENT_3D ( 'NONE', #183, #274, #253 ) ;
#272 = COLOUR_RGB ( '',0.7921568627450980005, 0.8196078431372548767, 0.9333333333333333481 ) ;
#273 = ORIENTED_EDGE ( 'NONE', *, *, #145, .F. ) ;
#274 = DIRECTION ( 'NONE',  ( 0.000000000000000000, 0.000000000000000000, 1.000000000000000000 ) ) ;
#275 = ORIENTED_EDGE ( 'NONE', *, *, #280, .T. ) ;
#276 = EDGE_LOOP ( 'NONE', ( #58, #218, #192, #215 ) ) ;
#277 = MANIFOLD_SOLID_BREP ( 'Boss-Extrude2', #7 ) ;
#278 = EDGE_CURVE ( 'NONE', #258, #72, #198, .T. ) ;
#279 = PRODUCT_DEFINITION_FORMATION_WITH_SPECIFIED_SOURCE ( 'ANY', '', #52, .NOT_KNOWN. ) ;
#280 = EDGE_CURVE ( 'NONE', #119, #115, #224, .T. ) ;
#281 = CARTESIAN_POINT ( 'NONE',  ( 3.500000000000000000, 4.286263797015736595E-16, 6.000000000000000000 ) ) ;
#282 =( LENGTH_UNIT ( ) NAMED_UNIT ( * ) SI_UNIT ( .MILLI., .METRE. ) );
#283 = CIRCLE ( 'NONE', #235, 3.500000000000000000 ) ;
#284 = LINE ( 'NONE', #13, #122 ) ;
#285 = CARTESIAN_POINT ( 'NONE',  ( 3.500000000000000000, 4.286263797015736595E-16, 10.00000000000000000 ) ) ;
#286 = CARTESIAN_POINT ( 'NONE',  ( 0.000000000000000000, 0.000000000000000000, 10.00000000000000000 ) ) ;
#287 = DIRECTION ( 'NONE',  ( 1.000000000000000000, 0.000000000000000000, 0.000000000000000000 ) ) ;
#288 = FACE_OUTER_BOUND ( 'NONE', #276, .T. ) ;
#289 = ORIENTED_EDGE ( 'NONE', *, *, #140, .F. ) ;
#290 = DIRECTION ( 'NONE',  ( -0.000000000000000000, -0.000000000000000000, -1.000000000000000000 ) ) ;
#291 = EDGE_CURVE ( 'NONE', #115, #227, #23, .T. ) ;
#292 = VECTOR ( 'NONE', #290, 1000.000000000000000 ) ;
#293 = CARTESIAN_POINT ( 'NONE',  ( 0.000000000000000000, 0.000000000000000000, 10.00000000000000000 ) ) ;
#294 = CARTESIAN_POINT ( 'NONE',  ( 0.000000000000000000, 0.000000000000000000, 10.00000000000000000 ) ) ;
ENDSEC;
END-ISO-10303-21;
