ISO-10303-21;
HEADER;
FILE_DESCRIPTION (( 'STEP AP214' ),
    '1' );
FILE_NAME ('PTFE Boot 1.1.STEP',
    '2024-12-05T11:18:28',
    ( '' ),
    ( '' ),
    'SwSTEP 2.0',
    'SolidWorks 2020',
    '' );
FILE_SCHEMA (( 'AUTOMOTIVE_DESIGN' ));
ENDSEC;

DATA;
#1 = EDGE_CURVE ( 'NONE', #20, #47, #294, .T. ) ;
#2 = CIRCLE ( 'NONE', #190, 3.000000000000000444 ) ;
#3 = AXIS2_PLACEMENT_3D ( 'NONE', #257, #121, #101 ) ;
#4 = EDGE_CURVE ( 'NONE', #163, #214, #2, .T. ) ;
#5 = CARTESIAN_POINT ( 'NONE',  ( 0.000000000000000000, 0.000000000000000000, 12.00000000000000000 ) ) ;
#6 = DIRECTION ( 'NONE',  ( 1.000000000000000000, 0.000000000000000000, 0.000000000000000000 ) ) ;
#7 = SURFACE_STYLE_USAGE ( .BOTH. , #194 ) ;
#8 = B_SPLINE_CURVE_WITH_KNOTS ( 'NONE', 3,
 ( #158, #155, #246, #216, #222, #189, #62, #109, #107, #215, #318, #319, #31, #110 ),
 .UNSPECIFIED., .F., .F.,
 ( 4, 2, 2, 2, 2, 2, 4 ),
 ( 0.000000000000000000, 0.0009240409893173451641, 0.001848081978634690328, 0.002310102473293362910, 0.002772122967952035492, 0.003234143462610707641, 0.003696163957269379789 ),
 .UNSPECIFIED. ) ;
#9 = DIRECTION ( 'NONE',  ( 0.000000000000000000, 0.000000000000000000, 1.000000000000000000 ) ) ;
#10 = VERTEX_POINT ( 'NONE', #91 ) ;
#11 = SURFACE_STYLE_FILL_AREA ( #241 ) ;
#12 = ORIENTED_EDGE ( 'NONE', *, *, #113, .T. ) ;
#13 = CARTESIAN_POINT ( 'NONE',  ( -0.7433798759556582425, -2.909390845617368271, 9.519794295849965948 ) ) ;
#14 = VERTEX_POINT ( 'NONE', #275 ) ;
#15 = LINE ( 'NONE', #119, #64 ) ;
#16 = DIRECTION ( 'NONE',  ( 0.000000000000000000, 0.000000000000000000, 1.000000000000000000 ) ) ;
#17 = DIRECTION ( 'NONE',  ( 1.000000000000000000, 0.000000000000000000, 0.000000000000000000 ) ) ;
#18 = DIRECTION ( 'NONE',  ( 1.000000000000000000, 0.000000000000000000, 0.000000000000000000 ) ) ;
#19 = CYLINDRICAL_SURFACE ( 'NONE', #182, 2.100000000000000533 ) ;
#20 = VERTEX_POINT ( 'NONE', #245 ) ;
#21 = ORIENTED_EDGE ( 'NONE', *, *, #212, .T. ) ;
#22 = CARTESIAN_POINT ( 'NONE',  ( 0.000000000000000000, 0.000000000000000000, 4.000000000000000000 ) ) ;
#23 = ORIENTED_EDGE ( 'NONE', *, *, #93, .T. ) ;
#24 = CARTESIAN_POINT ( 'NONE',  ( 1.618615457494447352, 0.6646304534492718519, 12.00000000000000000 ) ) ;
#25 = DIRECTION ( 'NONE',  ( -0.000000000000000000, -0.000000000000000000, 1.000000000000000000 ) ) ;
#26 = EDGE_CURVE ( 'NONE', #59, #269, #72, .T. ) ;
#27 = LINE ( 'NONE', #338, #290 ) ;
#28 = EDGE_CURVE ( 'NONE', #243, #147, #154, .T. ) ;
#29 = CIRCLE ( 'NONE', #153, 3.000000000000000444 ) ;
#30 = SHAPE_DEFINITION_REPRESENTATION ( #288, #187 ) ;
#31 = CARTESIAN_POINT ( 'NONE',  ( 0.1553303040714787975, -3.000000000000003553, 9.341478186202909484 ) ) ;
#32 = EDGE_CURVE ( 'NONE', #147, #243, #176, .T. ) ;
#33 = AXIS2_PLACEMENT_3D ( 'NONE', #252, #334, #227 ) ;
#34 =( NAMED_UNIT ( * ) SI_UNIT ( $, .STERADIAN. ) SOLID_ANGLE_UNIT ( ) );
#35 = AXIS2_PLACEMENT_3D ( 'NONE', #5, #67, #86 ) ;
#36 = CARTESIAN_POINT ( 'NONE',  ( -0.9942092250671313858, -2.833499029350356579, 9.686191000329023026 ) ) ;
#37 = CARTESIAN_POINT ( 'NONE',  ( 0.000000000000000000, 0.000000000000000000, 0.000000000000000000 ) ) ;
#38 = FACE_OUTER_BOUND ( 'NONE', #228, .T. ) ;
#39 = CARTESIAN_POINT ( 'NONE',  ( 3.000000000000000444, 0.000000000000000000, 4.000000000000000000 ) ) ;
#40 = ORIENTED_EDGE ( 'NONE', *, *, #87, .T. ) ;
#41 = DIRECTION ( 'NONE',  ( 0.000000000000000000, 0.000000000000000000, 1.000000000000000000 ) ) ;
#42 = CARTESIAN_POINT ( 'NONE',  ( 0.000000000000000000, 0.000000000000000000, 4.000000000000000000 ) ) ;
#43 = VERTEX_POINT ( 'NONE', #271 ) ;
#44 = CARTESIAN_POINT ( 'NONE',  ( -3.000000000000000444, 3.673940397442060361E-16, 4.000000000000000000 ) ) ;
#45 = ORIENTED_EDGE ( 'NONE', *, *, #136, .F. ) ;
#46 = EDGE_CURVE ( 'NONE', #163, #47, #117, .T. ) ;
#47 = VERTEX_POINT ( 'NONE', #66 ) ;
#48 = CARTESIAN_POINT ( 'NONE',  ( -1.963227226721842911, -2.268422107161289336, 12.00000000000000000 ) ) ;
#49 = STYLED_ITEM ( 'NONE', ( #329 ), #197 ) ;
#50 = ORIENTED_EDGE ( 'NONE', *, *, #85, .F. ) ;
#51 = CARTESIAN_POINT ( 'NONE',  ( -1.921964364879232390, -2.304133438648567900, 11.69480305135229159 ) ) ;
#52 = CARTESIAN_POINT ( 'NONE',  ( -1.618615457494447130, 0.6646304534492718519, 11.99999999999999822 ) ) ;
#53 = EDGE_CURVE ( 'NONE', #43, #10, #76, .T. ) ;
#54 = DIRECTION ( 'NONE',  ( 0.000000000000000000, 0.000000000000000000, 1.000000000000000000 ) ) ;
#55 = UNCERTAINTY_MEASURE_WITH_UNIT (LENGTH_MEASURE( 1.000000000000000082E-05 ), #65, 'distance_accuracy_value', 'NONE');
#56 = CIRCLE ( 'NONE', #286, 3.000000000000000444 ) ;
#57 = EDGE_CURVE ( 'NONE', #10, #301, #132, .T. ) ;
#58 = PRESENTATION_LAYER_ASSIGNMENT (  '', '', ( #327 ) ) ;
#59 = VERTEX_POINT ( 'NONE', #150 ) ;
#60 = PLANE ( 'NONE',  #70 ) ;
#61 = PRODUCT_DEFINITION ( 'UNKNOWN', '', #202, #264 ) ;
#62 = CARTESIAN_POINT ( 'NONE',  ( 1.302342851906182819, -2.704712554173419825, 10.00841143740442440 ) ) ;
#63 =( NAMED_UNIT ( * ) PLANE_ANGLE_UNIT ( ) SI_UNIT ( $, .RADIAN. ) );
#64 = VECTOR ( 'NONE', #97, 1000.000000000000114 ) ;
#65 =( LENGTH_UNIT ( ) NAMED_UNIT ( * ) SI_UNIT ( .MILLI., .METRE. ) );
#66 = CARTESIAN_POINT ( 'NONE',  ( 3.000000000000000444, 0.000000000000000000, 12.00000000000000000 ) ) ;
#67 = DIRECTION ( 'NONE',  ( 0.000000000000000000, 0.000000000000000000, 1.000000000000000000 ) ) ;
#68 = ORIENTED_EDGE ( 'NONE', *, *, #262, .F. ) ;
#69 = CYLINDRICAL_SURFACE ( 'NONE', #124, 4.000000000000000000 ) ;
#70 = AXIS2_PLACEMENT_3D ( 'NONE', #265, #89, #134 ) ;
#71 = ORIENTED_EDGE ( 'NONE', *, *, #57, .F. ) ;
#72 =( BOUNDED_CURVE ( )  B_SPLINE_CURVE ( 3, ( #233, #230, #138, #96 ),
 .UNSPECIFIED., .F., .F. ) 
 B_SPLINE_CURVE_WITH_KNOTS ( ( 4, 4 ),
 ( 0.000000000000000000, 3.141592653589793116 ),
 .UNSPECIFIED. ) 
 CURVE ( )  GEOMETRIC_REPRESENTATION_ITEM ( )  RATIONAL_B_SPLINE_CURVE ( ( 1.000000000000000000, 0.3333333333333333703, 0.3333333333333333703, 1.000000000000000000 ) ) 
 REPRESENTATION_ITEM ( '' )  );
#73 = CARTESIAN_POINT ( 'NONE',  ( -0.3104333321552365521, -2.987597357847605828, 9.364523703533558674 ) ) ;
#74 = ORIENTED_EDGE ( 'NONE', *, *, #4, .F. ) ;
#75 = DIRECTION ( 'NONE',  ( 0.000000000000000000, 0.2425356250363329691, -0.9701425001453318764 ) ) ;
#76 = B_SPLINE_CURVE_WITH_KNOTS ( 'NONE', 3,
 ( #141, #249, #73, #268, #13, #36, #137, #331, #168, #272, #261, #312, #51, #48 ),
 .UNSPECIFIED., .F., .F.,
 ( 4, 2, 2, 2, 2, 2, 4 ),
 ( 0.003696163957269379789, 0.004157723604949190889, 0.004619283252629001989, 0.005080842900308813088, 0.005542402547988623321, 0.006465521843348249857, 0.007388641138707876393 ),
 .UNSPECIFIED. ) ;
#77 = ORIENTED_EDGE ( 'NONE', *, *, #174, .T. ) ;
#78 = FACE_OUTER_BOUND ( 'NONE', #133, .T. ) ;
#79 = CYLINDRICAL_SURFACE ( 'NONE', #149, 4.000000000000000000 ) ;
#80 = SURFACE_STYLE_USAGE ( .BOTH. , #169 ) ;
#81 = DIRECTION ( 'NONE',  ( 0.000000000000000000, 0.000000000000000000, 1.000000000000000000 ) ) ;
#82 = DIRECTION ( 'NONE',  ( 1.000000000000000000, 0.000000000000000000, 0.000000000000000000 ) ) ;
#83 = DIRECTION ( 'NONE',  ( -0.000000000000000000, -0.000000000000000000, -1.000000000000000000 ) ) ;
#84 = VECTOR ( 'NONE', #280, 1000.000000000000000 ) ;
#85 = EDGE_CURVE ( 'NONE', #214, #163, #223, .T. ) ;
#86 = DIRECTION ( 'NONE',  ( 1.000000000000000000, 0.000000000000000000, -0.000000000000000000 ) ) ;
#87 = EDGE_CURVE ( 'NONE', #14, #147, #127, .T. ) ;
#88 = COLOUR_RGB ( '',0.7921568627450980005, 0.8196078431372548767, 0.9333333333333333481 ) ;
#89 = DIRECTION ( 'NONE',  ( 0.000000000000000000, 0.000000000000000000, 1.000000000000000000 ) ) ;
#90 = DIRECTION ( 'NONE',  ( -0.000000000000000000, -0.000000000000000000, -1.000000000000000000 ) ) ;
#91 = CARTESIAN_POINT ( 'NONE',  ( -1.963227226721842911, -2.268422107161289336, 12.00000000000000000 ) ) ;
#92 = MECHANICAL_DESIGN_GEOMETRIC_PRESENTATION_REPRESENTATION (  '', ( #49 ), #157 ) ;
#93 = EDGE_CURVE ( 'NONE', #214, #220, #239, .T. ) ;
#94 = ORIENTED_EDGE ( 'NONE', *, *, #85, .T. ) ;
#95 =( NAMED_UNIT ( * ) SI_UNIT ( $, .STERADIAN. ) SOLID_ANGLE_UNIT ( ) );
#96 = CARTESIAN_POINT ( 'NONE',  ( 2.571758278209442450E-16, -0.6646304534492722960, 0.000000000000000000 ) ) ;
#97 = DIRECTION ( 'NONE',  ( 0.000000000000000000, 0.2425356250363329691, -0.9701425001453318764 ) ) ;
#98 = ORIENTED_EDGE ( 'NONE', *, *, #26, .T. ) ;
#99 = AXIS2_PLACEMENT_3D ( 'NONE', #180, #25, #82 ) ;
#100 = ORIENTED_EDGE ( 'NONE', *, *, #316, .F. ) ;
#101 = DIRECTION ( 'NONE',  ( 1.000000000000000000, 0.000000000000000000, 0.000000000000000000 ) ) ;
#102 = CARTESIAN_POINT ( 'NONE',  ( 0.000000000000000000, 0.000000000000000000, 12.00000000000000000 ) ) ;
#103 = ADVANCED_FACE ( 'NONE', ( #235 ), #282, .T. ) ;
#104 = DIRECTION ( 'NONE',  ( -0.000000000000000000, -0.000000000000000000, -1.000000000000000000 ) ) ;
#105 = FACE_BOUND ( 'NONE', #259, .T. ) ;
#106 = CLOSED_SHELL ( 'NONE', ( #188, #142, #273, #323, #303, #313, #108, #103, #330 ) ) ;
#107 = CARTESIAN_POINT ( 'NONE',  ( 0.9946221241984257722, -2.833410834820414337, 9.686360452843565838 ) ) ;
#108 = ADVANCED_FACE ( 'NONE', ( #105, #237 ), #210, .F. ) ;
#109 = CARTESIAN_POINT ( 'NONE',  ( 1.105321424215563342, -2.791026953252961906, 9.785339550704957645 ) ) ;
#110 = CARTESIAN_POINT ( 'NONE',  ( -5.572999406322276565E-15, -3.000000000000040856, 9.341478186202840206 ) ) ;
#111 = FILL_AREA_STYLE_COLOUR ( '', #88 ) ;
#112 = EDGE_LOOP ( 'NONE', ( #45, #68, #40, #337 ) ) ;
#113 = EDGE_CURVE ( 'NONE', #301, #20, #211, .T. ) ;
#114 = DIRECTION ( 'NONE',  ( 0.000000000000000000, 0.2425356250363329969, -0.9701425001453319874 ) ) ;
#115 = EDGE_LOOP ( 'NONE', ( #120, #23, #277, #256 ) ) ;
#116 = CARTESIAN_POINT ( 'NONE',  ( -3.000000000000000444, 3.673940397442060361E-16, 12.00000000000000000 ) ) ;
#117 = LINE ( 'NONE', #39, #326 ) ;
#118 = EDGE_LOOP ( 'NONE', ( #74, #50 ) ) ;
#119 = CARTESIAN_POINT ( 'NONE',  ( 0.000000000000000000, 0.03729925030519733176, 14.50932481257630080 ) ) ;
#120 = ORIENTED_EDGE ( 'NONE', *, *, #4, .T. ) ;
#121 = DIRECTION ( 'NONE',  ( -0.000000000000000000, -0.000000000000000000, 1.000000000000000000 ) ) ;
#122 = PRESENTATION_LAYER_ASSIGNMENT (  '', '', ( #49 ) ) ;
#123 = FACE_OUTER_BOUND ( 'NONE', #115, .T. ) ;
#124 = AXIS2_PLACEMENT_3D ( 'NONE', #295, #90, #218 ) ;
#125 = DIRECTION ( 'NONE',  ( 1.000000000000000000, 0.000000000000000000, 0.000000000000000000 ) ) ;
#126 = CARTESIAN_POINT ( 'NONE',  ( 2.537819484975343709, -0.7086561889880557130, 12.00000000000000000 ) ) ;
#127 = LINE ( 'NONE', #284, #209 ) ;
#128 = CARTESIAN_POINT ( 'NONE',  ( 1.963227226721842911, -2.268422107161289336, 12.00000000000000000 ) ) ;
#129 = CIRCLE ( 'NONE', #139, 4.000000000000000000 ) ;
#130 = APPLICATION_PROTOCOL_DEFINITION ( 'draft international standard', 'automotive_design', 1998, #226 ) ;
#131 =( LENGTH_UNIT ( ) NAMED_UNIT ( * ) SI_UNIT ( .MILLI., .METRE. ) );
#132 =( BOUNDED_CURVE ( )  B_SPLINE_CURVE ( 3, ( #175, #315, #52, #314 ),
 .UNSPECIFIED., .F., .T. ) 
 B_SPLINE_CURVE_WITH_KNOTS ( ( 4, 4 ),
 ( 4.349485638227120532, 6.283185307179586232 ),
 .UNSPECIFIED. ) 
 CURVE ( )  GEOMETRIC_REPRESENTATION_ITEM ( )  RATIONAL_B_SPLINE_CURVE ( ( 1.000000000000000000, 0.7119301656753760366, 0.7119301656753760366, 1.000000000000000000 ) ) 
 REPRESENTATION_ITEM ( '' )  );
#133 = EDGE_LOOP ( 'NONE', ( #238, #145, #21, #247, #71 ) ) ;
#134 = DIRECTION ( 'NONE',  ( 1.000000000000000000, 0.000000000000000000, -0.000000000000000000 ) ) ;
#135 =( NAMED_UNIT ( * ) SI_UNIT ( $, .STERADIAN. ) SOLID_ANGLE_UNIT ( ) );
#136 = EDGE_CURVE ( 'NONE', #178, #243, #27, .T. ) ;
#137 = CARTESIAN_POINT ( 'NONE',  ( -1.106888083491284869, -2.790382277267917210, 9.786937038308884951 ) ) ;
#138 = CARTESIAN_POINT ( 'NONE',  ( 4.200000000000000178, -0.6646304534492712968, 0.000000000000000000 ) ) ;
#139 = AXIS2_PLACEMENT_3D ( 'NONE', #42, #144, #17 ) ;
#140 = CARTESIAN_POINT ( 'NONE',  ( 0.000000000000000000, 0.6646304534492722960, 12.00000000000000000 ) ) ;
#141 = CARTESIAN_POINT ( 'NONE',  ( -5.572999406322276565E-15, -3.000000000000040856, 9.341478186202840206 ) ) ;
#142 = ADVANCED_FACE ( 'NONE', ( #309 ), #79, .T. ) ;
#143 = ORIENTED_EDGE ( 'NONE', *, *, #159, .T. ) ;
#144 = DIRECTION ( 'NONE',  ( 0.000000000000000000, 0.000000000000000000, 1.000000000000000000 ) ) ;
#145 = ORIENTED_EDGE ( 'NONE', *, *, #242, .T. ) ;
#146 = AXIS2_PLACEMENT_3D ( 'NONE', #332, #41, #325 ) ;
#147 = VERTEX_POINT ( 'NONE', #260 ) ;
#148 = CARTESIAN_POINT ( 'NONE',  ( 0.000000000000000000, 0.6646304534492722960, 12.00000000000000000 ) ) ;
#149 = AXIS2_PLACEMENT_3D ( 'NONE', #172, #104, #207 ) ;
#150 = CARTESIAN_POINT ( 'NONE',  ( 0.000000000000000000, 3.664630453449272185, 0.000000000000000000 ) ) ;
#151 = DIRECTION ( 'NONE',  ( 1.000000000000000000, 0.000000000000000000, -0.000000000000000000 ) ) ;
#152 = PRODUCT_RELATED_PRODUCT_CATEGORY ( 'part', '', ( #317 ) ) ;
#153 = AXIS2_PLACEMENT_3D ( 'NONE', #102, #171, #231 ) ;
#154 = CIRCLE ( 'NONE', #33, 4.000000000000000000 ) ;
#155 = CARTESIAN_POINT ( 'NONE',  ( 1.921968091181448068, -2.304130213685287920, 11.69483061260268819 ) ) ;
#156 = DIRECTION ( 'NONE',  ( 0.000000000000000000, 0.9701425001453318764, 0.2425356250363332189 ) ) ;
#157 =( GEOMETRIC_REPRESENTATION_CONTEXT ( 3 ) GLOBAL_UNCERTAINTY_ASSIGNED_CONTEXT ( ( #181 ) ) GLOBAL_UNIT_ASSIGNED_CONTEXT ( ( #173, #198, #95 ) ) REPRESENTATION_CONTEXT ( 'NONE', 'WORKASPACE' ) );
#158 = CARTESIAN_POINT ( 'NONE',  ( 1.963227226721842911, -2.268422107161289336, 12.00000000000000000 ) ) ;
#159 = EDGE_CURVE ( 'NONE', #178, #14, #306, .T. ) ;
#160 = AXIS2_PLACEMENT_3D ( 'NONE', #37, #16, #328 ) ;
#161 = ORIENTED_EDGE ( 'NONE', *, *, #1, .T. ) ;
#162 =( GEOMETRIC_REPRESENTATION_CONTEXT ( 3 ) GLOBAL_UNCERTAINTY_ASSIGNED_CONTEXT ( ( #287 ) ) GLOBAL_UNIT_ASSIGNED_CONTEXT ( ( #131, #63, #135 ) ) REPRESENTATION_CONTEXT ( 'NONE', 'WORKASPACE' ) );
#163 = VERTEX_POINT ( 'NONE', #336 ) ;
#164 = PLANE ( 'NONE',  #35 ) ;
#165 = DIRECTION ( 'NONE',  ( 0.000000000000000000, 0.000000000000000000, 1.000000000000000000 ) ) ;
#166 = ORIENTED_EDGE ( 'NONE', *, *, #316, .T. ) ;
#167 = FILL_AREA_STYLE ('',( #205 ) ) ;
#168 = CARTESIAN_POINT ( 'NONE',  ( -1.388353380775608104, -2.660745060294213982, 10.13295837202577765 ) ) ;
#169 = SURFACE_SIDE_STYLE ('',( #310 ) ) ;
#170 = ORIENTED_EDGE ( 'NONE', *, *, #93, .F. ) ;
#171 = DIRECTION ( 'NONE',  ( 0.000000000000000000, 0.000000000000000000, 1.000000000000000000 ) ) ;
#172 = CARTESIAN_POINT ( 'NONE',  ( 0.000000000000000000, 0.000000000000000000, 12.00000000000000000 ) ) ;
#173 =( LENGTH_UNIT ( ) NAMED_UNIT ( * ) SI_UNIT ( .MILLI., .METRE. ) );
#174 = EDGE_CURVE ( 'NONE', #47, #220, #29, .T. ) ;
#175 = CARTESIAN_POINT ( 'NONE',  ( -1.963227226721842911, -2.268422107161289336, 12.00000000000000000 ) ) ;
#176 = CIRCLE ( 'NONE', #160, 4.000000000000000000 ) ;
#177 = ORIENTED_EDGE ( 'NONE', *, *, #262, .T. ) ;
#178 = VERTEX_POINT ( 'NONE', #234 ) ;
#179 = CARTESIAN_POINT ( 'NONE',  ( -3.000000000000000444, 3.673940397442060361E-16, 4.000000000000000000 ) ) ;
#180 = CARTESIAN_POINT ( 'NONE',  ( 0.000000000000000000, 0.000000000000000000, 4.000000000000000000 ) ) ;
#181 = UNCERTAINTY_MEASURE_WITH_UNIT (LENGTH_MEASURE( 1.000000000000000082E-05 ), #173, 'distance_accuracy_value', 'NONE');
#182 = AXIS2_PLACEMENT_3D ( 'NONE', #186, #114, #156 ) ;
#183 = EDGE_LOOP ( 'NONE', ( #170, #94, #193, #281, #166, #219, #196 ) ) ;
#184 = FACE_BOUND ( 'NONE', #118, .T. ) ;
#185 = AXIS2_PLACEMENT_3D ( 'NONE', #22, #208, #125 ) ;
#186 = CARTESIAN_POINT ( 'NONE',  ( 0.000000000000000000, -2.000000000000000000, 14.00000000000000000 ) ) ;
#187 = ADVANCED_BREP_SHAPE_REPRESENTATION ( 'PTFE Boot 1.1', ( #197, #298 ), #339 ) ;
#188 = ADVANCED_FACE ( 'NONE', ( #123 ), #333, .T. ) ;
#189 = CARTESIAN_POINT ( 'NONE',  ( 1.388080214398098589, -2.660885927492996128, 10.13255231091562791 ) ) ;
#190 = AXIS2_PLACEMENT_3D ( 'NONE', #224, #165, #18 ) ;
#191 = FACE_OUTER_BOUND ( 'NONE', #112, .T. ) ;
#192 = COLOUR_RGB ( '',0.7921568627450980005, 0.8196078431372548767, 0.9333333333333333481 ) ;
#193 = ORIENTED_EDGE ( 'NONE', *, *, #46, .T. ) ;
#194 = SURFACE_SIDE_STYLE ('',( #11 ) ) ;
#195 = EDGE_CURVE ( 'NONE', #220, #10, #56, .T. ) ;
#196 = ORIENTED_EDGE ( 'NONE', *, *, #195, .F. ) ;
#197 = MANIFOLD_SOLID_BREP ( 'Cut-Extrude1', #106 ) ;
#198 =( NAMED_UNIT ( * ) PLANE_ANGLE_UNIT ( ) SI_UNIT ( $, .RADIAN. ) );
#199 = ORIENTED_EDGE ( 'NONE', *, *, #32, .F. ) ;
#200 = LINE ( 'NONE', #305, #278 ) ;
#201 = EDGE_LOOP ( 'NONE', ( #199, #304 ) ) ;
#202 = PRODUCT_DEFINITION_FORMATION_WITH_SPECIFIED_SOURCE ( 'ANY', '', #317, .NOT_KNOWN. ) ;
#203 = CARTESIAN_POINT ( 'NONE',  ( 0.000000000000000000, 3.664630453449272185, 0.000000000000000000 ) ) ;
#204 = DIRECTION ( 'NONE',  ( -0.000000000000000000, -0.000000000000000000, -1.000000000000000000 ) ) ;
#205 = FILL_AREA_STYLE_COLOUR ( '', #192 ) ;
#206 = ORIENTED_EDGE ( 'NONE', *, *, #26, .F. ) ;
#207 = DIRECTION ( 'NONE',  ( -1.000000000000000000, 0.000000000000000000, 0.000000000000000000 ) ) ;
#208 = DIRECTION ( 'NONE',  ( 0.000000000000000000, 0.000000000000000000, 1.000000000000000000 ) ) ;
#209 = VECTOR ( 'NONE', #83, 1000.000000000000000 ) ;
#210 = PLANE ( 'NONE',  #248 ) ;
#211 =( BOUNDED_CURVE ( )  B_SPLINE_CURVE ( 3, ( #148, #24, #126, #128 ),
 .UNSPECIFIED., .F., .F. ) 
 B_SPLINE_CURVE_WITH_KNOTS ( ( 4, 4 ),
 ( 0.000000000000000000, 1.933699668952466144 ),
 .UNSPECIFIED. ) 
 CURVE ( )  GEOMETRIC_REPRESENTATION_ITEM ( )  RATIONAL_B_SPLINE_CURVE ( ( 1.000000000000000000, 0.7119301656753759255, 0.7119301656753759255, 1.000000000000000000 ) ) 
 REPRESENTATION_ITEM ( '' )  );
#212 = EDGE_CURVE ( 'NONE', #269, #59, #244, .T. ) ;
#213 = AXIS2_PLACEMENT_3D ( 'NONE', #293, #322, #300 ) ;
#214 = VERTEX_POINT ( 'NONE', #44 ) ;
#215 = CARTESIAN_POINT ( 'NONE',  ( 0.7414354984524936798, -2.909942186789492791, 9.518609515739079541 ) ) ;
#216 = CARTESIAN_POINT ( 'NONE',  ( 1.711903220185447383, -2.465531971811605771, 10.80957270441323814 ) ) ;
#217 = CARTESIAN_POINT ( 'NONE',  ( 0.000000000000000000, 0.000000000000000000, 0.000000000000000000 ) ) ;
#218 = DIRECTION ( 'NONE',  ( -1.000000000000000000, 0.000000000000000000, 0.000000000000000000 ) ) ;
#219 = ORIENTED_EDGE ( 'NONE', *, *, #53, .T. ) ;
#220 = VERTEX_POINT ( 'NONE', #116 ) ;
#221 = EDGE_CURVE ( 'NONE', #301, #59, #15, .T. ) ;
#222 = CARTESIAN_POINT ( 'NONE',  ( 1.608534348728130059, -2.537900638696612976, 10.52162355165248542 ) ) ;
#223 = CIRCLE ( 'NONE', #232, 3.000000000000000444 ) ;
#224 = CARTESIAN_POINT ( 'NONE',  ( 0.000000000000000000, 0.000000000000000000, 4.000000000000000000 ) ) ;
#225 = ORIENTED_EDGE ( 'NONE', *, *, #57, .T. ) ;
#226 = APPLICATION_CONTEXT ( 'automotive_design' ) ;
#227 = DIRECTION ( 'NONE',  ( 1.000000000000000000, 0.000000000000000000, 0.000000000000000000 ) ) ;
#228 = EDGE_LOOP ( 'NONE', ( #225, #12, #161, #77, #258 ) ) ;
#229 = CARTESIAN_POINT ( 'NONE',  ( -4.200000000000000178, 3.664630453449272185, 0.000000000000000000 ) ) ;
#230 = CARTESIAN_POINT ( 'NONE',  ( 4.200000000000000178, 3.664630453449272185, 0.000000000000000000 ) ) ;
#231 = DIRECTION ( 'NONE',  ( 1.000000000000000000, 0.000000000000000000, 0.000000000000000000 ) ) ;
#232 = AXIS2_PLACEMENT_3D ( 'NONE', #340, #81, #263 ) ;
#233 = CARTESIAN_POINT ( 'NONE',  ( 0.000000000000000000, 3.664630453449272185, 0.000000000000000000 ) ) ;
#234 = CARTESIAN_POINT ( 'NONE',  ( 4.000000000000000000, 4.898587196589412829E-16, 4.000000000000000000 ) ) ;
#235 = FACE_OUTER_BOUND ( 'NONE', #183, .T. ) ;
#236 = ORIENTED_EDGE ( 'NONE', *, *, #87, .F. ) ;
#237 = FACE_OUTER_BOUND ( 'NONE', #201, .T. ) ;
#238 = ORIENTED_EDGE ( 'NONE', *, *, #53, .F. ) ;
#239 = LINE ( 'NONE', #179, #84 ) ;
#240 = APPLICATION_CONTEXT ( 'automotive_design' ) ;
#241 = FILL_AREA_STYLE ('',( #111 ) ) ;
#242 = EDGE_CURVE ( 'NONE', #43, #269, #200, .T. ) ;
#243 = VERTEX_POINT ( 'NONE', #274 ) ;
#244 =( BOUNDED_CURVE ( )  B_SPLINE_CURVE ( 3, ( #251, #253, #229, #203 ),
 .UNSPECIFIED., .F., .T. ) 
 B_SPLINE_CURVE_WITH_KNOTS ( ( 4, 4 ),
 ( 3.141592653589793116, 6.283185307179586232 ),
 .UNSPECIFIED. ) 
 CURVE ( )  GEOMETRIC_REPRESENTATION_ITEM ( )  RATIONAL_B_SPLINE_CURVE ( ( 1.000000000000000000, 0.3333333333333333703, 0.3333333333333333703, 1.000000000000000000 ) ) 
 REPRESENTATION_ITEM ( '' )  );
#245 = CARTESIAN_POINT ( 'NONE',  ( 1.963227226721842911, -2.268422107161289336, 12.00000000000000000 ) ) ;
#246 = CARTESIAN_POINT ( 'NONE',  ( 1.868013925680199749, -2.349464728990708462, 11.39440587836402941 ) ) ;
#247 = ORIENTED_EDGE ( 'NONE', *, *, #221, .F. ) ;
#248 = AXIS2_PLACEMENT_3D ( 'NONE', #285, #54, #151 ) ;
#249 = CARTESIAN_POINT ( 'NONE',  ( -0.1551753683009431117, -3.000000000000001332, 9.341478186202909484 ) ) ;
#250 = ORIENTED_EDGE ( 'NONE', *, *, #136, .T. ) ;
#251 = CARTESIAN_POINT ( 'NONE',  ( 2.571758278209442450E-16, -0.6646304534492722960, 0.000000000000000000 ) ) ;
#252 = CARTESIAN_POINT ( 'NONE',  ( 0.000000000000000000, 0.000000000000000000, 0.000000000000000000 ) ) ;
#253 = CARTESIAN_POINT ( 'NONE',  ( -4.200000000000000178, -0.6646304534492724070, 0.000000000000000000 ) ) ;
#254 = EDGE_LOOP ( 'NONE', ( #177, #143 ) ) ;
#255 = ORIENTED_EDGE ( 'NONE', *, *, #159, .F. ) ;
#256 = ORIENTED_EDGE ( 'NONE', *, *, #46, .F. ) ;
#257 = CARTESIAN_POINT ( 'NONE',  ( 0.000000000000000000, 0.000000000000000000, 4.000000000000000000 ) ) ;
#258 = ORIENTED_EDGE ( 'NONE', *, *, #195, .T. ) ;
#259 = EDGE_LOOP ( 'NONE', ( #206, #311 ) ) ;
#260 = CARTESIAN_POINT ( 'NONE',  ( -4.000000000000000000, 0.000000000000000000, 0.000000000000000000 ) ) ;
#261 = CARTESIAN_POINT ( 'NONE',  ( -1.710581291080620403, -2.466480028670951175, 10.80522082384436189 ) ) ;
#262 = EDGE_CURVE ( 'NONE', #14, #178, #129, .T. ) ;
#263 = DIRECTION ( 'NONE',  ( 1.000000000000000000, 0.000000000000000000, 0.000000000000000000 ) ) ;
#264 = PRODUCT_DEFINITION_CONTEXT ( 'detailed design', #240, 'design' ) ;
#265 = CARTESIAN_POINT ( 'NONE',  ( 0.000000000000000000, 0.000000000000000000, 4.000000000000000000 ) ) ;
#266 = FACE_OUTER_BOUND ( 'NONE', #254, .T. ) ;
#267 = EDGE_LOOP ( 'NONE', ( #279, #100, #320, #307, #98 ) ) ;
#268 = CARTESIAN_POINT ( 'NONE',  ( -0.6043243103593234355, -2.942260857612684966, 9.453586318279663558 ) ) ;
#269 = VERTEX_POINT ( 'NONE', #308 ) ;
#270 = CYLINDRICAL_SURFACE ( 'NONE', #213, 2.100000000000000533 ) ;
#271 = CARTESIAN_POINT ( 'NONE',  ( -5.572999406322276565E-15, -3.000000000000040856, 9.341478186202840206 ) ) ;
#272 = CARTESIAN_POINT ( 'NONE',  ( -1.608929490796867645, -2.537657076282887836, 10.52247349087816808 ) ) ;
#273 = ADVANCED_FACE ( 'NONE', ( #78 ), #19, .F. ) ;
#274 = CARTESIAN_POINT ( 'NONE',  ( 4.000000000000000000, 4.898587196589412829E-16, 0.000000000000000000 ) ) ;
#275 = CARTESIAN_POINT ( 'NONE',  ( -4.000000000000000000, 0.000000000000000000, 4.000000000000000000 ) ) ;
#276 = DIRECTION ( 'NONE',  ( 1.000000000000000000, 0.000000000000000000, 0.000000000000000000 ) ) ;
#277 = ORIENTED_EDGE ( 'NONE', *, *, #174, .F. ) ;
#278 = VECTOR ( 'NONE', #75, 1000.000000000000114 ) ;
#279 = ORIENTED_EDGE ( 'NONE', *, *, #242, .F. ) ;
#280 = DIRECTION ( 'NONE',  ( -0.000000000000000000, -0.000000000000000000, 1.000000000000000000 ) ) ;
#281 = ORIENTED_EDGE ( 'NONE', *, *, #1, .F. ) ;
#282 = CYLINDRICAL_SURFACE ( 'NONE', #99, 3.000000000000000444 ) ;
#283 = EDGE_LOOP ( 'NONE', ( #255, #250, #299, #236 ) ) ;
#284 = CARTESIAN_POINT ( 'NONE',  ( -4.000000000000000000, 0.000000000000000000, 12.00000000000000000 ) ) ;
#285 = CARTESIAN_POINT ( 'NONE',  ( 0.000000000000000000, 0.000000000000000000, 0.000000000000000000 ) ) ;
#286 = AXIS2_PLACEMENT_3D ( 'NONE', #335, #302, #276 ) ;
#287 = UNCERTAINTY_MEASURE_WITH_UNIT (LENGTH_MEASURE( 1.000000000000000082E-05 ), #131, 'distance_accuracy_value', 'NONE');
#288 = PRODUCT_DEFINITION_SHAPE ( 'NONE', 'NONE',  #61 ) ;
#289 = PRODUCT_CONTEXT ( 'NONE', #226, 'mechanical' ) ;
#290 = VECTOR ( 'NONE', #204, 1000.000000000000000 ) ;
#291 = FACE_OUTER_BOUND ( 'NONE', #267, .T. ) ;
#292 = MECHANICAL_DESIGN_GEOMETRIC_PRESENTATION_REPRESENTATION (  '', ( #327 ), #162 ) ;
#293 = CARTESIAN_POINT ( 'NONE',  ( 0.000000000000000000, -2.000000000000000000, 14.00000000000000000 ) ) ;
#294 = CIRCLE ( 'NONE', #146, 3.000000000000000444 ) ;
#295 = CARTESIAN_POINT ( 'NONE',  ( 0.000000000000000000, 0.000000000000000000, 12.00000000000000000 ) ) ;
#296 = DIRECTION ( 'NONE',  ( -0.000000000000000000, -0.000000000000000000, 1.000000000000000000 ) ) ;
#297 = PRESENTATION_STYLE_ASSIGNMENT (( #7 ) ) ;
#298 = AXIS2_PLACEMENT_3D ( 'NONE', #217, #9, #6 ) ;
#299 = ORIENTED_EDGE ( 'NONE', *, *, #28, .T. ) ;
#300 = DIRECTION ( 'NONE',  ( 0.000000000000000000, 0.9701425001453318764, 0.2425356250363332189 ) ) ;
#301 = VERTEX_POINT ( 'NONE', #140 ) ;
#302 = DIRECTION ( 'NONE',  ( 0.000000000000000000, 0.000000000000000000, 1.000000000000000000 ) ) ;
#303 = ADVANCED_FACE ( 'NONE', ( #191 ), #69, .T. ) ;
#304 = ORIENTED_EDGE ( 'NONE', *, *, #28, .F. ) ;
#305 = CARTESIAN_POINT ( 'NONE',  ( 2.571758278209442450E-16, -4.037299250305197873, 13.49067518742370098 ) ) ;
#306 = CIRCLE ( 'NONE', #185, 4.000000000000000000 ) ;
#307 = ORIENTED_EDGE ( 'NONE', *, *, #221, .T. ) ;
#308 = CARTESIAN_POINT ( 'NONE',  ( 2.571758278209442450E-16, -0.6646304534492722960, 0.000000000000000000 ) ) ;
#309 = FACE_OUTER_BOUND ( 'NONE', #283, .T. ) ;
#310 = SURFACE_STYLE_FILL_AREA ( #167 ) ;
#311 = ORIENTED_EDGE ( 'NONE', *, *, #212, .F. ) ;
#312 = CARTESIAN_POINT ( 'NONE',  ( -1.867970541548823027, -2.349531472684181388, 11.39364811324599636 ) ) ;
#313 = ADVANCED_FACE ( 'NONE', ( #38 ), #164, .T. ) ;
#314 = CARTESIAN_POINT ( 'NONE',  ( 0.000000000000000000, 0.6646304534492722960, 12.00000000000000000 ) ) ;
#315 = CARTESIAN_POINT ( 'NONE',  ( -2.537819484975343265, -0.7086561889880556020, 11.99999999999999822 ) ) ;
#316 = EDGE_CURVE ( 'NONE', #20, #43, #8, .T. ) ;
#317 = PRODUCT ( 'PTFE Boot 1.1', 'PTFE Boot 1.1', '', ( #289 ) ) ;
#318 = CARTESIAN_POINT ( 'NONE',  ( 0.6047426998575891055, -2.942216317188141694, 9.453670791225750492 ) ) ;
#319 = CARTESIAN_POINT ( 'NONE',  ( 0.3092298170834799076, -2.987762960876535256, 9.364201413664526186 ) ) ;
#320 = ORIENTED_EDGE ( 'NONE', *, *, #113, .F. ) ;
#321 = APPLICATION_PROTOCOL_DEFINITION ( 'draft international standard', 'automotive_design', 1998, #240 ) ;
#322 = DIRECTION ( 'NONE',  ( 0.000000000000000000, 0.2425356250363329969, -0.9701425001453319874 ) ) ;
#323 = ADVANCED_FACE ( 'NONE', ( #291 ), #270, .F. ) ;
#324 =( NAMED_UNIT ( * ) PLANE_ANGLE_UNIT ( ) SI_UNIT ( $, .RADIAN. ) );
#325 = DIRECTION ( 'NONE',  ( 1.000000000000000000, 0.000000000000000000, 0.000000000000000000 ) ) ;
#326 = VECTOR ( 'NONE', #296, 1000.000000000000000 ) ;
#327 = STYLED_ITEM ( 'NONE', ( #297 ), #187 ) ;
#328 = DIRECTION ( 'NONE',  ( 1.000000000000000000, 0.000000000000000000, 0.000000000000000000 ) ) ;
#329 = PRESENTATION_STYLE_ASSIGNMENT (( #80 ) ) ;
#330 = ADVANCED_FACE ( 'NONE', ( #184, #266 ), #60, .T. ) ;
#331 = CARTESIAN_POINT ( 'NONE',  ( -1.302747678991352798, -2.704493107321320533, 10.00904789214013313 ) ) ;
#332 = CARTESIAN_POINT ( 'NONE',  ( 0.000000000000000000, 0.000000000000000000, 12.00000000000000000 ) ) ;
#333 = CYLINDRICAL_SURFACE ( 'NONE', #3, 3.000000000000000444 ) ;
#334 = DIRECTION ( 'NONE',  ( 0.000000000000000000, 0.000000000000000000, 1.000000000000000000 ) ) ;
#335 = CARTESIAN_POINT ( 'NONE',  ( 0.000000000000000000, 0.000000000000000000, 12.00000000000000000 ) ) ;
#336 = CARTESIAN_POINT ( 'NONE',  ( 3.000000000000000444, 0.000000000000000000, 4.000000000000000000 ) ) ;
#337 = ORIENTED_EDGE ( 'NONE', *, *, #32, .T. ) ;
#338 = CARTESIAN_POINT ( 'NONE',  ( 4.000000000000000000, 4.898587196589412829E-16, 12.00000000000000000 ) ) ;
#339 =( GEOMETRIC_REPRESENTATION_CONTEXT ( 3 ) GLOBAL_UNCERTAINTY_ASSIGNED_CONTEXT ( ( #55 ) ) GLOBAL_UNIT_ASSIGNED_CONTEXT ( ( #65, #324, #34 ) ) REPRESENTATION_CONTEXT ( 'NONE', 'WORKASPACE' ) );
#340 = CARTESIAN_POINT ( 'NONE',  ( 0.000000000000000000, 0.000000000000000000, 4.000000000000000000 ) ) ;
ENDSEC;
END-ISO-10303-21;
