ISO-10303-21;
HEADER;
FILE_DESCRIPTION (( 'STEP AP214' ),
    '1' );
FILE_NAME ('groove.STEP',
    '2024-12-30T02:34:53',
    ( '' ),
    ( '' ),
    'SwSTEP 2.0',
    'SolidWorks 2020',
    '' );
FILE_SCHEMA (( 'AUTOMOTIVE_DESIGN' ));
ENDSEC;

DATA;
#1 = FACE_OUTER_BOUND ( 'NONE', #304, .T. ) ;
#2 = DIRECTION ( 'NONE',  ( -0.000000000000000000, -0.000000000000000000, -1.000000000000000000 ) ) ;
#3 = CARTESIAN_POINT ( 'NONE',  ( 2.449293598294708880E-16, 8.349999999999999645, 15.00000000000000000 ) ) ;
#4 = ADVANCED_FACE ( 'NONE', ( #177 ), #207, .F. ) ;
#5 = DIRECTION ( 'NONE',  ( 0.7692146412586761128, -0.6389904816765943352, 0.000000000000000000 ) ) ;
#6 = DIRECTION ( 'NONE',  ( -0.7692146412586761128, 0.6389904816765943352, 0.000000000000000000 ) ) ;
#7 = PRODUCT ( 'groove', 'groove', '', ( #26 ) ) ;
#8 = CARTESIAN_POINT ( 'NONE',  ( 8.125873898152873309, -3.000000000000000000, 15.00000000000000000 ) ) ;
#9 = CARTESIAN_POINT ( 'NONE',  ( 8.125873898152873309, 3.000000000000000000, 15.00000000000000000 ) ) ;
#10 = ORIENTED_EDGE ( 'NONE', *, *, #279, .F. ) ;
#11 = DIRECTION ( 'NONE',  ( 0.000000000000000000, 0.000000000000000000, 1.000000000000000000 ) ) ;
#12 = EDGE_CURVE ( 'NONE', #227, #288, #232, .T. ) ;
#13 = CARTESIAN_POINT ( 'NONE',  ( 3.542429563922065292E-15, -8.349999999999999645, 0.000000000000000000 ) ) ;
#14 = ORIENTED_EDGE ( 'NONE', *, *, #245, .F. ) ;
#15 = AXIS2_PLACEMENT_3D ( 'NONE', #100, #209, #236 ) ;
#16 = DIRECTION ( 'NONE',  ( -0.000000000000000000, -0.000000000000000000, -1.000000000000000000 ) ) ;
#17 = SURFACE_STYLE_USAGE ( .BOTH. , #194 ) ;
#18 = ORIENTED_EDGE ( 'NONE', *, *, #119, .F. ) ;
#19 = PLANE ( 'NONE',  #48 ) ;
#20 = EDGE_CURVE ( 'NONE', #283, #204, #285, .T. ) ;
#21 = DIRECTION ( 'NONE',  ( 0.000000000000000000, 0.000000000000000000, 1.000000000000000000 ) ) ;
#22 = ORIENTED_EDGE ( 'NONE', *, *, #28, .F. ) ;
#23 = VECTOR ( 'NONE', #252, 999.9999999999998863 ) ;
#24 = AXIS2_PLACEMENT_3D ( 'NONE', #61, #191, #85 ) ;
#25 = ORIENTED_EDGE ( 'NONE', *, *, #237, .T. ) ;
#26 = PRODUCT_CONTEXT ( 'NONE', #51, 'mechanical' ) ;
#27 = ORIENTED_EDGE ( 'NONE', *, *, #136, .T. ) ;
#28 = EDGE_CURVE ( 'NONE', #171, #331, #154, .T. ) ;
#29 = CARTESIAN_POINT ( 'NONE',  ( 3.000000000000003109, -7.258089297201403944, 15.00000000000000000 ) ) ;
#30 = CARTESIAN_POINT ( 'NONE',  ( 0.000000000000000000, 0.000000000000000000, 15.00000000000000000 ) ) ;
#31 = ADVANCED_FACE ( 'NONE', ( #230 ), #94, .F. ) ;
#32 = CARTESIAN_POINT ( 'NONE',  ( 3.000000000000003109, -7.258089297201403944, 15.00000000000000000 ) ) ;
#33 = CARTESIAN_POINT ( 'NONE',  ( 0.000000000000000000, 10.35000000000000142, 15.00000000000000000 ) ) ;
#34 = DIRECTION ( 'NONE',  ( -0.9396926207859094271, -0.3420201433256657153, -0.000000000000000000 ) ) ;
#35 =( NAMED_UNIT ( * ) SI_UNIT ( $, .STERADIAN. ) SOLID_ANGLE_UNIT ( ) );
#36 = VERTEX_POINT ( 'NONE', #263 ) ;
#37 = FILL_AREA_STYLE ('',( #273 ) ) ;
#38 = ORIENTED_EDGE ( 'NONE', *, *, #220, .T. ) ;
#39 = EDGE_CURVE ( 'NONE', #288, #171, #178, .T. ) ;
#40 = SURFACE_STYLE_USAGE ( .BOTH. , #66 ) ;
#41 = FACE_OUTER_BOUND ( 'NONE', #303, .T. ) ;
#42 = VECTOR ( 'NONE', #305, 1000.000000000000000 ) ;
#43 = ORIENTED_EDGE ( 'NONE', *, *, #90, .F. ) ;
#44 = LINE ( 'NONE', #235, #290 ) ;
#45 = VERTEX_POINT ( 'NONE', #128 ) ;
#46 = DIRECTION ( 'NONE',  ( 0.3420201433256654933, 0.9396926207859095381, -0.000000000000000000 ) ) ;
#47 = DIRECTION ( 'NONE',  ( 0.7692146412586762239, 0.6389904816765944462, 0.000000000000000000 ) ) ;
#48 = AXIS2_PLACEMENT_3D ( 'NONE', #146, #175, #88 ) ;
#49 = EDGE_CURVE ( 'NONE', #45, #274, #44, .T. ) ;
#50 = LINE ( 'NONE', #102, #79 ) ;
#51 = APPLICATION_CONTEXT ( 'automotive_design' ) ;
#52 = VECTOR ( 'NONE', #5, 1000.000000000000114 ) ;
#53 = DIRECTION ( 'NONE',  ( -0.000000000000000000, -0.000000000000000000, -1.000000000000000000 ) ) ;
#54 = ORIENTED_EDGE ( 'NONE', *, *, #90, .T. ) ;
#55 = APPLICATION_CONTEXT ( 'automotive_design' ) ;
#56 = EDGE_CURVE ( 'NONE', #287, #204, #336, .T. ) ;
#57 = CARTESIAN_POINT ( 'NONE',  ( 0.000000000000000000, -10.35000000000000142, 15.00000000000000000 ) ) ;
#58 = ORIENTED_EDGE ( 'NONE', *, *, #12, .F. ) ;
#59 = UNCERTAINTY_MEASURE_WITH_UNIT (LENGTH_MEASURE( 1.000000000000000082E-05 ), #192, 'distance_accuracy_value', 'NONE');
#60 = LINE ( 'NONE', #319, #234 ) ;
#61 = CARTESIAN_POINT ( 'NONE',  ( 0.000000000000000000, 10.35000000000000142, 15.00000000000000000 ) ) ;
#62 = DIRECTION ( 'NONE',  ( 0.000000000000000000, 0.000000000000000000, 1.000000000000000000 ) ) ;
#63 =( NAMED_UNIT ( * ) SI_UNIT ( $, .STERADIAN. ) SOLID_ANGLE_UNIT ( ) );
#64 = ORIENTED_EDGE ( 'NONE', *, *, #162, .T. ) ;
#65 =( GEOMETRIC_REPRESENTATION_CONTEXT ( 3 ) GLOBAL_UNCERTAINTY_ASSIGNED_CONTEXT ( ( #59 ) ) GLOBAL_UNIT_ASSIGNED_CONTEXT ( ( #192, #196, #63 ) ) REPRESENTATION_CONTEXT ( 'NONE', 'WORKASPACE' ) );
#66 = SURFACE_SIDE_STYLE ('',( #327 ) ) ;
#67 = ADVANCED_FACE ( 'NONE', ( #329 ), #310, .F. ) ;
#68 = ORIENTED_EDGE ( 'NONE', *, *, #20, .T. ) ;
#69 = DIRECTION ( 'NONE',  ( 0.6389904816765944462, -0.7692146412586762239, 0.000000000000000000 ) ) ;
#70 = EDGE_CURVE ( 'NONE', #227, #45, #50, .T. ) ;
#71 = SHAPE_DEFINITION_REPRESENTATION ( #239, #129 ) ;
#72 = EDGE_LOOP ( 'NONE', ( #255, #165, #312, #25 ) ) ;
#73 = CARTESIAN_POINT ( 'NONE',  ( 2.449293598294708880E-16, 8.349999999999999645, 15.00000000000000000 ) ) ;
#74 = ORIENTED_EDGE ( 'NONE', *, *, #159, .T. ) ;
#75 = ADVANCED_FACE ( 'NONE', ( #1 ), #210, .T. ) ;
#76 = CARTESIAN_POINT ( 'NONE',  ( 3.000000000000003109, -7.258089297201403944, 15.00000000000000000 ) ) ;
#77 = VECTOR ( 'NONE', #258, 1000.000000000000000 ) ;
#78 = VECTOR ( 'NONE', #34, 1000.000000000000227 ) ;
#79 = VECTOR ( 'NONE', #182, 1000.000000000000000 ) ;
#80 = ORIENTED_EDGE ( 'NONE', *, *, #125, .T. ) ;
#81 = DIRECTION ( 'NONE',  ( 0.000000000000000000, -1.000000000000000000, 0.000000000000000000 ) ) ;
#82 = CARTESIAN_POINT ( 'NONE',  ( 2.449293598294708880E-16, 8.349999999999999645, 15.00000000000000000 ) ) ;
#83 = VERTEX_POINT ( 'NONE', #76 ) ;
#84 = CARTESIAN_POINT ( 'NONE',  ( 3.542429563922065292E-15, -8.349999999999999645, 15.00000000000000000 ) ) ;
#85 = DIRECTION ( 'NONE',  ( -1.224646799147353207E-16, 1.000000000000000000, 0.000000000000000000 ) ) ;
#86 = EDGE_LOOP ( 'NONE', ( #311, #282, #89, #180 ) ) ;
#87 = SURFACE_STYLE_FILL_AREA ( #186 ) ;
#88 = DIRECTION ( 'NONE',  ( -0.000000000000000000, 0.000000000000000000, -1.000000000000000000 ) ) ;
#89 = ORIENTED_EDGE ( 'NONE', *, *, #162, .F. ) ;
#90 = EDGE_CURVE ( 'NONE', #296, #83, #158, .T. ) ;
#91 = DIRECTION ( 'NONE',  ( 1.000000000000000000, -1.771214781961031266E-15, 0.000000000000000000 ) ) ;
#92 = ORIENTED_EDGE ( 'NONE', *, *, #125, .F. ) ;
#93 = MECHANICAL_DESIGN_GEOMETRIC_PRESENTATION_REPRESENTATION (  '', ( #269 ), #213 ) ;
#94 = PLANE ( 'NONE',  #123 ) ;
#95 = EDGE_CURVE ( 'NONE', #121, #195, #114, .T. ) ;
#96 = CARTESIAN_POINT ( 'NONE',  ( 0.000000000000000000, -10.35000000000000142, 0.000000000000000000 ) ) ;
#97 = ORIENTED_EDGE ( 'NONE', *, *, #183, .F. ) ;
#98 = UNCERTAINTY_MEASURE_WITH_UNIT (LENGTH_MEASURE( 1.000000000000000082E-05 ), #108, 'distance_accuracy_value', 'NONE');
#99 = AXIS2_PLACEMENT_3D ( 'NONE', #73, #46, #179 ) ;
#100 = CARTESIAN_POINT ( 'NONE',  ( 3.542429563922065292E-15, -8.349999999999999645, 15.00000000000000000 ) ) ;
#101 = ADVANCED_FACE ( 'NONE', ( #41 ), #190, .F. ) ;
#102 = CARTESIAN_POINT ( 'NONE',  ( 0.000000000000000000, 10.35000000000000142, 15.00000000000000000 ) ) ;
#103 = CARTESIAN_POINT ( 'NONE',  ( 0.000000000000000000, -10.35000000000000142, 0.000000000000000000 ) ) ;
#104 = MECHANICAL_DESIGN_GEOMETRIC_PRESENTATION_REPRESENTATION (  '', ( #201 ), #65 ) ;
#105 = VECTOR ( 'NONE', #221, 1000.000000000000000 ) ;
#106 = CIRCLE ( 'NONE', #224, 10.35000000000000142 ) ;
#107 = VECTOR ( 'NONE', #217, 1000.000000000000000 ) ;
#108 =( LENGTH_UNIT ( ) NAMED_UNIT ( * ) SI_UNIT ( .MILLI., .METRE. ) );
#109 = PRODUCT_DEFINITION ( 'UNKNOWN', '', #137, #142 ) ;
#110 = LINE ( 'NONE', #84, #157 ) ;
#111 = PLANE ( 'NONE',  #24 ) ;
#112 = DIRECTION ( 'NONE',  ( 0.000000000000000000, 0.000000000000000000, 1.000000000000000000 ) ) ;
#113 = LINE ( 'NONE', #9, #130 ) ;
#114 = LINE ( 'NONE', #219, #133 ) ;
#115 = AXIS2_PLACEMENT_3D ( 'NONE', #322, #91, #250 ) ;
#116 = COLOUR_RGB ( '',0.7921568627450980005, 0.8196078431372548767, 0.9333333333333333481 ) ;
#117 = ORIENTED_EDGE ( 'NONE', *, *, #70, .F. ) ;
#118 = DIRECTION ( 'NONE',  ( 1.000000000000000000, 0.000000000000000000, 0.000000000000000000 ) ) ;
#119 = EDGE_CURVE ( 'NONE', #274, #127, #295, .T. ) ;
#120 =( LENGTH_UNIT ( ) NAMED_UNIT ( * ) SI_UNIT ( .MILLI., .METRE. ) );
#121 = VERTEX_POINT ( 'NONE', #328 ) ;
#122 = ORIENTED_EDGE ( 'NONE', *, *, #292, .T. ) ;
#123 = AXIS2_PLACEMENT_3D ( 'NONE', #29, #69, #47 ) ;
#124 = ORIENTED_EDGE ( 'NONE', *, *, #39, .T. ) ;
#125 = EDGE_CURVE ( 'NONE', #83, #36, #110, .T. ) ;
#126 = ORIENTED_EDGE ( 'NONE', *, *, #261, .F. ) ;
#127 = VERTEX_POINT ( 'NONE', #174 ) ;
#128 = CARTESIAN_POINT ( 'NONE',  ( 0.000000000000000000, 10.35000000000000142, 0.000000000000000000 ) ) ;
#129 = ADVANCED_BREP_SHAPE_REPRESENTATION ( 'groove', ( #193, #297 ), #317 ) ;
#130 = VECTOR ( 'NONE', #53, 1000.000000000000000 ) ;
#131 = ADVANCED_FACE ( 'NONE', ( #301 ), #198, .T. ) ;
#132 = DIRECTION ( 'NONE',  ( -0.000000000000000000, -0.000000000000000000, -1.000000000000000000 ) ) ;
#133 = VECTOR ( 'NONE', #275, 999.9999999999998863 ) ;
#134 = PRESENTATION_LAYER_ASSIGNMENT (  '', '', ( #269 ) ) ;
#135 = CARTESIAN_POINT ( 'NONE',  ( 3.000000000000001776, 7.258089297201403944, 0.000000000000000000 ) ) ;
#136 = EDGE_CURVE ( 'NONE', #296, #121, #246, .T. ) ;
#137 = PRODUCT_DEFINITION_FORMATION_WITH_SPECIFIED_SOURCE ( 'ANY', '', #7, .NOT_KNOWN. ) ;
#138 = CARTESIAN_POINT ( 'NONE',  ( 3.542429563922065292E-15, -8.349999999999999645, 0.000000000000000000 ) ) ;
#139 = ORIENTED_EDGE ( 'NONE', *, *, #199, .F. ) ;
#140 = CARTESIAN_POINT ( 'NONE',  ( 0.000000000000000000, 0.000000000000000000, 15.00000000000000000 ) ) ;
#141 = ORIENTED_EDGE ( 'NONE', *, *, #49, .F. ) ;
#142 = PRODUCT_DEFINITION_CONTEXT ( 'detailed design', #55, 'design' ) ;
#143 = DIRECTION ( 'NONE',  ( -0.9396926207859094271, -0.3420201433256657153, -0.000000000000000000 ) ) ;
#144 = FACE_OUTER_BOUND ( 'NONE', #222, .T. ) ;
#145 = ORIENTED_EDGE ( 'NONE', *, *, #220, .F. ) ;
#146 = CARTESIAN_POINT ( 'NONE',  ( 8.125873898152873309, 3.000000000000000000, 15.00000000000000000 ) ) ;
#147 = VECTOR ( 'NONE', #205, 1000.000000000000000 ) ;
#148 = CARTESIAN_POINT ( 'NONE',  ( 8.125873898152873309, -3.000000000000000000, 15.00000000000000000 ) ) ;
#149 = CARTESIAN_POINT ( 'NONE',  ( 2.449293598294708880E-16, 8.349999999999999645, 0.000000000000000000 ) ) ;
#150 = ORIENTED_EDGE ( 'NONE', *, *, #183, .T. ) ;
#151 = ORIENTED_EDGE ( 'NONE', *, *, #56, .T. ) ;
#152 = DIRECTION ( 'NONE',  ( 1.224646799147353207E-16, -1.000000000000000000, 0.000000000000000000 ) ) ;
#153 = DIRECTION ( 'NONE',  ( -0.000000000000000000, -0.000000000000000000, -1.000000000000000000 ) ) ;
#154 = LINE ( 'NONE', #156, #161 ) ;
#155 = ADVANCED_FACE ( 'NONE', ( #298 ), #226, .F. ) ;
#156 = CARTESIAN_POINT ( 'NONE',  ( 3.000000000000001776, 7.258089297201403944, 15.00000000000000000 ) ) ;
#157 = VECTOR ( 'NONE', #143, 1000.000000000000227 ) ;
#158 = LINE ( 'NONE', #314, #238 ) ;
#159 = EDGE_CURVE ( 'NONE', #171, #127, #60, .T. ) ;
#160 = CARTESIAN_POINT ( 'NONE',  ( 8.125873898152873309, 3.000000000000000000, 0.000000000000000000 ) ) ;
#161 = VECTOR ( 'NONE', #260, 1000.000000000000114 ) ;
#162 = EDGE_CURVE ( 'NONE', #331, #296, #169, .T. ) ;
#163 = LINE ( 'NONE', #138, #78 ) ;
#164 = CARTESIAN_POINT ( 'NONE',  ( 2.449293598294708880E-16, 8.349999999999999645, 0.000000000000000000 ) ) ;
#165 = ORIENTED_EDGE ( 'NONE', *, *, #159, .F. ) ;
#166 = CARTESIAN_POINT ( 'NONE',  ( 8.125873898152873309, 3.000000000000000000, 15.00000000000000000 ) ) ;
#167 = AXIS2_PLACEMENT_3D ( 'NONE', #30, #132, #289 ) ;
#168 = PLANE ( 'NONE',  #284 ) ;
#169 = LINE ( 'NONE', #166, #256 ) ;
#170 = CARTESIAN_POINT ( 'NONE',  ( 3.000000000000001776, 7.258089297201403944, 15.00000000000000000 ) ) ;
#171 = VERTEX_POINT ( 'NONE', #248 ) ;
#172 = LINE ( 'NONE', #160, #262 ) ;
#173 =( NAMED_UNIT ( * ) SI_UNIT ( $, .STERADIAN. ) SOLID_ANGLE_UNIT ( ) );
#174 = CARTESIAN_POINT ( 'NONE',  ( 3.000000000000001776, 7.258089297201403944, 0.000000000000000000 ) ) ;
#175 = DIRECTION ( 'NONE',  ( 1.000000000000000000, 0.000000000000000000, -0.000000000000000000 ) ) ;
#176 = ADVANCED_FACE ( 'NONE', ( #278 ), #19, .F. ) ;
#177 = FACE_OUTER_BOUND ( 'NONE', #72, .T. ) ;
#178 = LINE ( 'NONE', #203, #200 ) ;
#179 = DIRECTION ( 'NONE',  ( -0.9396926207859095381, 0.3420201433256654933, 0.000000000000000000 ) ) ;
#180 = ORIENTED_EDGE ( 'NONE', *, *, #325, .T. ) ;
#181 = CARTESIAN_POINT ( 'NONE',  ( 0.000000000000000000, 10.35000000000000142, 15.00000000000000000 ) ) ;
#182 = DIRECTION ( 'NONE',  ( -0.000000000000000000, -0.000000000000000000, -1.000000000000000000 ) ) ;
#183 = EDGE_CURVE ( 'NONE', #204, #45, #106, .T. ) ;
#184 = LINE ( 'NONE', #32, #306 ) ;
#185 = VECTOR ( 'NONE', #153, 1000.000000000000000 ) ;
#186 = FILL_AREA_STYLE ('',( #326 ) ) ;
#187 = ORIENTED_EDGE ( 'NONE', *, *, #237, .F. ) ;
#188 = CARTESIAN_POINT ( 'NONE',  ( 8.125873898152873309, 3.000000000000000000, 15.00000000000000000 ) ) ;
#189 = ORIENTED_EDGE ( 'NONE', *, *, #95, .F. ) ;
#190 = PLANE ( 'NONE',  #115 ) ;
#191 = DIRECTION ( 'NONE',  ( 1.000000000000000000, 1.224646799147353207E-16, -0.000000000000000000 ) ) ;
#192 =( LENGTH_UNIT ( ) NAMED_UNIT ( * ) SI_UNIT ( .MILLI., .METRE. ) );
#193 = MANIFOLD_SOLID_BREP ( 'Boss-Extrude1', #206 ) ;
#194 = SURFACE_SIDE_STYLE ('',( #87 ) ) ;
#195 = VERTEX_POINT ( 'NONE', #265 ) ;
#196 =( NAMED_UNIT ( * ) PLANE_ANGLE_UNIT ( ) SI_UNIT ( $, .RADIAN. ) );
#197 = ORIENTED_EDGE ( 'NONE', *, *, #279, .T. ) ;
#198 = PLANE ( 'NONE',  #334 ) ;
#199 = EDGE_CURVE ( 'NONE', #318, #121, #172, .T. ) ;
#200 = VECTOR ( 'NONE', #229, 999.9999999999998863 ) ;
#201 = STYLED_ITEM ( 'NONE', ( #281 ), #193 ) ;
#202 = VECTOR ( 'NONE', #2, 1000.000000000000000 ) ;
#203 = CARTESIAN_POINT ( 'NONE',  ( 2.449293598294708880E-16, 8.349999999999999645, 15.00000000000000000 ) ) ;
#204 = VERTEX_POINT ( 'NONE', #103 ) ;
#205 = DIRECTION ( 'NONE',  ( -1.771214781961031068E-15, -1.000000000000000000, -0.000000000000000000 ) ) ;
#206 = CLOSED_SHELL ( 'NONE', ( #75, #313, #4, #335, #176, #31, #67, #101, #131, #155 ) ) ;
#207 = PLANE ( 'NONE',  #99 ) ;
#208 = CIRCLE ( 'NONE', #257, 10.35000000000000142 ) ;
#209 = DIRECTION ( 'NONE',  ( 0.3420201433256657153, -0.9396926207859095381, 0.000000000000000000 ) ) ;
#210 = CYLINDRICAL_SURFACE ( 'NONE', #167, 10.35000000000000142 ) ;
#211 = AXIS2_PLACEMENT_3D ( 'NONE', #223, #62, #216 ) ;
#212 = DIRECTION ( 'NONE',  ( 1.000000000000000000, 0.000000000000000000, 0.000000000000000000 ) ) ;
#213 =( GEOMETRIC_REPRESENTATION_CONTEXT ( 3 ) GLOBAL_UNCERTAINTY_ASSIGNED_CONTEXT ( ( #272 ) ) GLOBAL_UNIT_ASSIGNED_CONTEXT ( ( #120, #293, #35 ) ) REPRESENTATION_CONTEXT ( 'NONE', 'WORKASPACE' ) );
#214 = DIRECTION ( 'NONE',  ( 0.000000000000000000, 0.000000000000000000, 1.000000000000000000 ) ) ;
#215 = ORIENTED_EDGE ( 'NONE', *, *, #49, .T. ) ;
#216 = DIRECTION ( 'NONE',  ( 1.000000000000000000, 0.000000000000000000, -0.000000000000000000 ) ) ;
#217 = DIRECTION ( 'NONE',  ( -1.771214781961031068E-15, -1.000000000000000000, -0.000000000000000000 ) ) ;
#218 = ORIENTED_EDGE ( 'NONE', *, *, #253, .T. ) ;
#219 = CARTESIAN_POINT ( 'NONE',  ( 3.000000000000003109, -7.258089297201403944, 0.000000000000000000 ) ) ;
#220 = EDGE_CURVE ( 'NONE', #83, #195, #184, .T. ) ;
#221 = DIRECTION ( 'NONE',  ( -0.000000000000000000, -0.000000000000000000, -1.000000000000000000 ) ) ;
#222 = EDGE_LOOP ( 'NONE', ( #218, #280, #22, #74 ) ) ;
#223 = CARTESIAN_POINT ( 'NONE',  ( 0.000000000000000000, 0.000000000000000000, 0.000000000000000000 ) ) ;
#224 = AXIS2_PLACEMENT_3D ( 'NONE', #324, #11, #118 ) ;
#225 = EDGE_LOOP ( 'NONE', ( #97, #251, #10, #189, #139, #254, #18, #141 ) ) ;
#226 = PLANE ( 'NONE',  #211 ) ;
#227 = VERTEX_POINT ( 'NONE', #33 ) ;
#228 = DIRECTION ( 'NONE',  ( 1.000000000000000000, 0.000000000000000000, -0.000000000000000000 ) ) ;
#229 = DIRECTION ( 'NONE',  ( 0.9396926207859096492, -0.3420201433256655488, 0.000000000000000000 ) ) ;
#230 = FACE_OUTER_BOUND ( 'NONE', #268, .T. ) ;
#231 = APPLICATION_PROTOCOL_DEFINITION ( 'draft international standard', 'automotive_design', 1998, #55 ) ;
#232 = LINE ( 'NONE', #181, #77 ) ;
#233 = EDGE_LOOP ( 'NONE', ( #247, #277, #124, #294, #64, #54, #80, #249 ) ) ;
#234 = VECTOR ( 'NONE', #16, 1000.000000000000000 ) ;
#235 = CARTESIAN_POINT ( 'NONE',  ( 0.000000000000000000, 10.35000000000000142, 0.000000000000000000 ) ) ;
#236 = DIRECTION ( 'NONE',  ( 0.9396926207859095381, 0.3420201433256657153, 0.000000000000000000 ) ) ;
#237 = EDGE_CURVE ( 'NONE', #288, #274, #241, .T. ) ;
#238 = VECTOR ( 'NONE', #270, 999.9999999999998863 ) ;
#239 = PRODUCT_DEFINITION_SHAPE ( 'NONE', 'NONE',  #109 ) ;
#240 = CARTESIAN_POINT ( 'NONE',  ( 0.000000000000000000, 0.000000000000000000, 15.00000000000000000 ) ) ;
#241 = LINE ( 'NONE', #3, #202 ) ;
#242 = LINE ( 'NONE', #299, #105 ) ;
#243 = PRESENTATION_LAYER_ASSIGNMENT (  '', '', ( #201 ) ) ;
#244 = DIRECTION ( 'NONE',  ( 0.6389904816765944462, 0.7692146412586762239, -0.000000000000000000 ) ) ;
#245 = EDGE_CURVE ( 'NONE', #283, #227, #208, .T. ) ;
#246 = LINE ( 'NONE', #8, #42 ) ;
#247 = ORIENTED_EDGE ( 'NONE', *, *, #245, .T. ) ;
#248 = CARTESIAN_POINT ( 'NONE',  ( 3.000000000000001776, 7.258089297201403944, 15.00000000000000000 ) ) ;
#249 = ORIENTED_EDGE ( 'NONE', *, *, #261, .T. ) ;
#250 = DIRECTION ( 'NONE',  ( 1.771214781961031266E-15, 1.000000000000000000, 0.000000000000000000 ) ) ;
#251 = ORIENTED_EDGE ( 'NONE', *, *, #56, .F. ) ;
#252 = DIRECTION ( 'NONE',  ( 0.9396926207859096492, -0.3420201433256655488, 0.000000000000000000 ) ) ;
#253 = EDGE_CURVE ( 'NONE', #127, #318, #264, .T. ) ;
#254 = ORIENTED_EDGE ( 'NONE', *, *, #253, .F. ) ;
#255 = ORIENTED_EDGE ( 'NONE', *, *, #119, .T. ) ;
#256 = VECTOR ( 'NONE', #81, 1000.000000000000000 ) ;
#257 = AXIS2_PLACEMENT_3D ( 'NONE', #240, #214, #212 ) ;
#258 = DIRECTION ( 'NONE',  ( 1.224646799147353207E-16, -1.000000000000000000, 0.000000000000000000 ) ) ;
#259 = ORIENTED_EDGE ( 'NONE', *, *, #20, .F. ) ;
#260 = DIRECTION ( 'NONE',  ( 0.7692146412586761128, -0.6389904816765943352, 0.000000000000000000 ) ) ;
#261 = EDGE_CURVE ( 'NONE', #36, #283, #315, .T. ) ;
#262 = VECTOR ( 'NONE', #291, 1000.000000000000000 ) ;
#263 = CARTESIAN_POINT ( 'NONE',  ( 3.542429563922065292E-15, -8.349999999999999645, 15.00000000000000000 ) ) ;
#264 = LINE ( 'NONE', #135, #52 ) ;
#265 = CARTESIAN_POINT ( 'NONE',  ( 3.000000000000003109, -7.258089297201403944, 0.000000000000000000 ) ) ;
#266 = DIRECTION ( 'NONE',  ( -0.000000000000000000, -0.000000000000000000, -1.000000000000000000 ) ) ;
#267 = FACE_OUTER_BOUND ( 'NONE', #308, .T. ) ;
#268 = EDGE_LOOP ( 'NONE', ( #307, #145, #43, #27 ) ) ;
#269 = STYLED_ITEM ( 'NONE', ( #302 ), #129 ) ;
#270 = DIRECTION ( 'NONE',  ( -0.7692146412586762239, -0.6389904816765944462, -0.000000000000000000 ) ) ;
#271 = APPLICATION_PROTOCOL_DEFINITION ( 'draft international standard', 'automotive_design', 1998, #51 ) ;
#272 = UNCERTAINTY_MEASURE_WITH_UNIT (LENGTH_MEASURE( 1.000000000000000082E-05 ), #120, 'distance_accuracy_value', 'NONE');
#273 = FILL_AREA_STYLE_COLOUR ( '', #316 ) ;
#274 = VERTEX_POINT ( 'NONE', #164 ) ;
#275 = DIRECTION ( 'NONE',  ( -0.7692146412586762239, -0.6389904816765944462, -0.000000000000000000 ) ) ;
#276 =( NAMED_UNIT ( * ) PLANE_ANGLE_UNIT ( ) SI_UNIT ( $, .RADIAN. ) );
#277 = ORIENTED_EDGE ( 'NONE', *, *, #12, .T. ) ;
#278 = FACE_OUTER_BOUND ( 'NONE', #86, .T. ) ;
#279 = EDGE_CURVE ( 'NONE', #195, #287, #163, .T. ) ;
#280 = ORIENTED_EDGE ( 'NONE', *, *, #325, .F. ) ;
#281 = PRESENTATION_STYLE_ASSIGNMENT (( #40 ) ) ;
#282 = ORIENTED_EDGE ( 'NONE', *, *, #136, .F. ) ;
#283 = VERTEX_POINT ( 'NONE', #57 ) ;
#284 = AXIS2_PLACEMENT_3D ( 'NONE', #170, #244, #6 ) ;
#285 = LINE ( 'NONE', #332, #185 ) ;
#286 = CARTESIAN_POINT ( 'NONE',  ( 0.000000000000000000, 0.000000000000000000, 0.000000000000000000 ) ) ;
#287 = VERTEX_POINT ( 'NONE', #13 ) ;
#288 = VERTEX_POINT ( 'NONE', #82 ) ;
#289 = DIRECTION ( 'NONE',  ( -1.000000000000000000, 0.000000000000000000, 0.000000000000000000 ) ) ;
#290 = VECTOR ( 'NONE', #152, 1000.000000000000000 ) ;
#291 = DIRECTION ( 'NONE',  ( 0.000000000000000000, -1.000000000000000000, 0.000000000000000000 ) ) ;
#292 = EDGE_CURVE ( 'NONE', #36, #287, #242, .T. ) ;
#293 =( NAMED_UNIT ( * ) PLANE_ANGLE_UNIT ( ) SI_UNIT ( $, .RADIAN. ) );
#294 = ORIENTED_EDGE ( 'NONE', *, *, #28, .T. ) ;
#295 = LINE ( 'NONE', #149, #23 ) ;
#296 = VERTEX_POINT ( 'NONE', #148 ) ;
#297 = AXIS2_PLACEMENT_3D ( 'NONE', #286, #21, #309 ) ;
#298 = FACE_OUTER_BOUND ( 'NONE', #225, .T. ) ;
#299 = CARTESIAN_POINT ( 'NONE',  ( 3.542429563922065292E-15, -8.349999999999999645, 15.00000000000000000 ) ) ;
#300 = ORIENTED_EDGE ( 'NONE', *, *, #292, .F. ) ;
#301 = FACE_OUTER_BOUND ( 'NONE', #233, .T. ) ;
#302 = PRESENTATION_STYLE_ASSIGNMENT (( #17 ) ) ;
#303 = EDGE_LOOP ( 'NONE', ( #151, #259, #126, #122 ) ) ;
#304 = EDGE_LOOP ( 'NONE', ( #150, #117, #14, #68 ) ) ;
#305 = DIRECTION ( 'NONE',  ( -0.000000000000000000, -0.000000000000000000, -1.000000000000000000 ) ) ;
#306 = VECTOR ( 'NONE', #266, 1000.000000000000000 ) ;
#307 = ORIENTED_EDGE ( 'NONE', *, *, #95, .T. ) ;
#308 = EDGE_LOOP ( 'NONE', ( #215, #187, #58, #333 ) ) ;
#309 = DIRECTION ( 'NONE',  ( 1.000000000000000000, 0.000000000000000000, 0.000000000000000000 ) ) ;
#310 = PLANE ( 'NONE',  #15 ) ;
#311 = ORIENTED_EDGE ( 'NONE', *, *, #199, .T. ) ;
#312 = ORIENTED_EDGE ( 'NONE', *, *, #39, .F. ) ;
#313 = ADVANCED_FACE ( 'NONE', ( #267 ), #111, .F. ) ;
#314 = CARTESIAN_POINT ( 'NONE',  ( 3.000000000000003109, -7.258089297201403944, 15.00000000000000000 ) ) ;
#315 = LINE ( 'NONE', #323, #107 ) ;
#316 = COLOUR_RGB ( '',0.7921568627450980005, 0.8196078431372548767, 0.9333333333333333481 ) ;
#317 =( GEOMETRIC_REPRESENTATION_CONTEXT ( 3 ) GLOBAL_UNCERTAINTY_ASSIGNED_CONTEXT ( ( #98 ) ) GLOBAL_UNIT_ASSIGNED_CONTEXT ( ( #108, #276, #173 ) ) REPRESENTATION_CONTEXT ( 'NONE', 'WORKASPACE' ) );
#318 = VERTEX_POINT ( 'NONE', #320 ) ;
#319 = CARTESIAN_POINT ( 'NONE',  ( 3.000000000000001776, 7.258089297201403944, 15.00000000000000000 ) ) ;
#320 = CARTESIAN_POINT ( 'NONE',  ( 8.125873898152873309, 3.000000000000000000, 0.000000000000000000 ) ) ;
#321 = EDGE_LOOP ( 'NONE', ( #197, #300, #92, #38 ) ) ;
#322 = CARTESIAN_POINT ( 'NONE',  ( 0.000000000000000000, -10.35000000000000142, 15.00000000000000000 ) ) ;
#323 = CARTESIAN_POINT ( 'NONE',  ( 0.000000000000000000, -10.35000000000000142, 15.00000000000000000 ) ) ;
#324 = CARTESIAN_POINT ( 'NONE',  ( 0.000000000000000000, 0.000000000000000000, 0.000000000000000000 ) ) ;
#325 = EDGE_CURVE ( 'NONE', #331, #318, #113, .T. ) ;
#326 = FILL_AREA_STYLE_COLOUR ( '', #116 ) ;
#327 = SURFACE_STYLE_FILL_AREA ( #37 ) ;
#328 = CARTESIAN_POINT ( 'NONE',  ( 8.125873898152873309, -3.000000000000000000, 0.000000000000000000 ) ) ;
#329 = FACE_OUTER_BOUND ( 'NONE', #321, .T. ) ;
#330 = PRODUCT_RELATED_PRODUCT_CATEGORY ( 'part', '', ( #7 ) ) ;
#331 = VERTEX_POINT ( 'NONE', #188 ) ;
#332 = CARTESIAN_POINT ( 'NONE',  ( 0.000000000000000000, -10.35000000000000142, 15.00000000000000000 ) ) ;
#333 = ORIENTED_EDGE ( 'NONE', *, *, #70, .T. ) ;
#334 = AXIS2_PLACEMENT_3D ( 'NONE', #140, #112, #228 ) ;
#335 = ADVANCED_FACE ( 'NONE', ( #144 ), #168, .F. ) ;
#336 = LINE ( 'NONE', #96, #147 ) ;
ENDSEC;
END-ISO-10303-21;
