ISO-10303-21;
HEADER;
/* Generated by software containing ST-Developer
 * from STEP Tools, Inc. (www.steptools.com) 
 */

FILE_DESCRIPTION(
/* description */ ('Alibre Inc.'),
/* implementation_level */ '2;1');

FILE_NAME(
/* name */ 'export-9D93ABDC-E564-4DD4-80E3-FA2AF030119F',
/* time_stamp */ '2025-03-15T17:51:20+08:00',
/* author */ (''),
/* organization */ (''),
/* preprocessor_version */ 'ST-DEVELOPER v17',
/* originating_system */ 'Alibre',
/* authorisation */ '');

FILE_SCHEMA (('CONFIG_CONTROL_DESIGN'));
ENDSEC;

DATA;
#10=MECHANICAL_CONTEXT('detailed design',#18,'mechanical');
#11=PRODUCT_RELATED_PRODUCT_CATEGORY('detail','',(#98));
#12=CC_DESIGN_SECURITY_CLASSIFICATION(#14,(#97));
#13=SECURITY_CLASSIFICATION_LEVEL('unclassified');
#14=SECURITY_CLASSIFICATION('name','Security for version',#13);
#15=SHAPE_DEFINITION_REPRESENTATION(#16,#269);
#16=PRODUCT_DEFINITION_SHAPE('','DefinitionDesc',#96);
#17=APPLICATION_PROTOCOL_DEFINITION('AP definition status',
'config_control_design',1994,#18);
#18=APPLICATION_CONTEXT(
'control the configuration of three dimensional design');
#19=DESIGN_CONTEXT('detailed design',#18,'design');
#20=PERSON_AND_ORGANIZATION_ROLE('creator');
#21=PERSON_AND_ORGANIZATION_ROLE('classification_officer');
#22=PERSON_AND_ORGANIZATION_ROLE('creator');
#23=PERSON_AND_ORGANIZATION_ROLE('design_supplier');
#24=PERSON_AND_ORGANIZATION_ROLE('design_owner');
#25=CC_DESIGN_PERSON_AND_ORGANIZATION_ASSIGNMENT(#57,#20,(#96));
#26=CC_DESIGN_PERSON_AND_ORGANIZATION_ASSIGNMENT(#60,#21,(#14));
#27=CC_DESIGN_PERSON_AND_ORGANIZATION_ASSIGNMENT(#61,#22,(#97));
#28=CC_DESIGN_PERSON_AND_ORGANIZATION_ASSIGNMENT(#62,#23,(#97));
#29=CC_DESIGN_PERSON_AND_ORGANIZATION_ASSIGNMENT(#63,#24,(#98));
#30=DATE_TIME_ROLE('creation_date');
#31=DATE_TIME_ROLE('classification_date');
#32=CC_DESIGN_DATE_AND_TIME_ASSIGNMENT(#86,#30,(#96));
#33=CC_DESIGN_DATE_AND_TIME_ASSIGNMENT(#89,#31,(#14));
#34=CC_DESIGN_APPROVAL(#93,(#96));
#35=CC_DESIGN_APPROVAL(#94,(#97));
#36=CC_DESIGN_APPROVAL(#95,(#14));
#37=APPROVAL_PERSON_ORGANIZATION(#56,#93,#64);
#38=APPROVAL_PERSON_ORGANIZATION(#58,#94,#65);
#39=APPROVAL_PERSON_ORGANIZATION(#59,#95,#66);
#40=ORGANIZATION('DEFINITION_APPROVEDBY_ORG_ID',
'DEFINITION_APPROVEDBY_ORG_NAME','DEFINITION_APPROVEDBY_ORG_DESCR');
#41=ORGANIZATION('DEF_CREATOR_ORG_ID','DEF_CREATOR_ORG_NAME',
'DEF_CREATOR_ORG_DESCR');
#42=ORGANIZATION('APPROVEDBY_ORG_ID','APPROVEDBY_ORG_NAME',
'APPROVEDBY_ORG_DESCR');
#43=ORGANIZATION('SECURITY_APPROVEDBY_ORG_ID',
'SECURITY_APPROVEDBY_ORG_NAME','SECURITY_APPROVEDBY_ORG_DESCR');
#44=ORGANIZATION('CLASSOFFICER_ORG_ID','CLASSOFFICER_ORG_NAME',
'CLASSOFFICER_ORG_DESCR');
#45=ORGANIZATION('CREATOR_ORG_ID','CREATOR_ORG_NAME',
'CREATOR_ORG_DESCR');
#46=ORGANIZATION('SUPPLIER_ORG_ID','SUPPLIER_ORG_NAME',
'SUPPLIER_ORG_DESCR');
#47=ORGANIZATION('OWNER_ORG_ID','OWNER_ORG_NAME','OWNER_ORG_DESCR');
#48=PERSON('DEFINITION_approverID','DEFINITION_APPROVEDBY_LASTNAME',
'DEFINITION_APPROVEDBY_FIRSTNAME',$,$,$);
#49=PERSON('DEF_createrID','DEF_CREATOR_LASTNAME',
'DEF_CREATOR_FIRSTNAME',$,$,$);
#50=PERSON('approverID','APPROVEDBY_LASTNAME','APPROVEDBY_FIRSTNAME',$,
$,$);
#51=PERSON('SECURITY_approverID','SECURITY_LASTNAME',
'SECURITY_APPROVEDBY_FIRSTNAME',$,$,$);
#52=PERSON('classifierID','CLASSOFFICER_LASTNAME',
'CLASSOFFICER_FIRSTNAME',$,$,$);
#53=PERSON('createrID','CREATOR_LASTNAME','CREATOR_FIRSTNAME',$,$,$);
#54=PERSON('supplierID','SUPPLIER_LASTNAME','SUPPLIER_FIRSTNAME',$,$,$);
#55=PERSON('ownerID','OWNER_LASTNAME','OWNER_FIRSTNAME',$,$,$);
#56=PERSON_AND_ORGANIZATION(#48,#40);
#57=PERSON_AND_ORGANIZATION(#49,#41);
#58=PERSON_AND_ORGANIZATION(#50,#42);
#59=PERSON_AND_ORGANIZATION(#51,#43);
#60=PERSON_AND_ORGANIZATION(#52,#44);
#61=PERSON_AND_ORGANIZATION(#53,#45);
#62=PERSON_AND_ORGANIZATION(#54,#46);
#63=PERSON_AND_ORGANIZATION(#55,#47);
#64=APPROVAL_ROLE('definition_approval');
#65=APPROVAL_ROLE('version_approval');
#66=APPROVAL_ROLE('security_approval');
#67=APPROVAL_DATE_TIME(#85,#93);
#68=APPROVAL_DATE_TIME(#87,#94);
#69=APPROVAL_DATE_TIME(#88,#95);
#70=COORDINATED_UNIVERSAL_TIME_OFFSET(8,0,.AHEAD.);
#71=COORDINATED_UNIVERSAL_TIME_OFFSET(8,0,.AHEAD.);
#72=COORDINATED_UNIVERSAL_TIME_OFFSET(8,0,.AHEAD.);
#73=COORDINATED_UNIVERSAL_TIME_OFFSET(8,0,.AHEAD.);
#74=COORDINATED_UNIVERSAL_TIME_OFFSET(8,0,.AHEAD.);
#75=LOCAL_TIME(17,50,52.,#70);
#76=LOCAL_TIME(17,50,52.,#71);
#77=LOCAL_TIME(17,50,52.,#72);
#78=LOCAL_TIME(17,50,52.,#73);
#79=LOCAL_TIME(17,50,52.,#74);
#80=CALENDAR_DATE(2025,15,3);
#81=CALENDAR_DATE(2025,15,3);
#82=CALENDAR_DATE(2025,15,3);
#83=CALENDAR_DATE(2025,15,3);
#84=CALENDAR_DATE(2025,15,3);
#85=DATE_AND_TIME(#80,#75);
#86=DATE_AND_TIME(#81,#76);
#87=DATE_AND_TIME(#82,#77);
#88=DATE_AND_TIME(#83,#78);
#89=DATE_AND_TIME(#84,#79);
#90=APPROVAL_STATUS('not_yet_approved');
#91=APPROVAL_STATUS('not_yet_approved');
#92=APPROVAL_STATUS('not_yet_approved');
#93=APPROVAL(#90,'defintion approval');
#94=APPROVAL(#91,'version approval');
#95=APPROVAL(#92,'security approval');
#96=PRODUCT_DEFINITION('DefinitionID','DefinitionDesc',#97,#19);
#97=PRODUCT_DEFINITION_FORMATION_WITH_SPECIFIED_SOURCE(
'PRODUCT_VERSION_ID','PRODUCT_VERSION_DESCR',#98,.NOT_KNOWN.);
#98=PRODUCT('','Stepped Shaft','',(#10));
#99=(
LENGTH_UNIT()
NAMED_UNIT(*)
SI_UNIT(.CENTI.,.METRE.)
);
#100=(
NAMED_UNIT(*)
PLANE_ANGLE_UNIT()
SI_UNIT($,.RADIAN.)
);
#101=(
NAMED_UNIT(*)
SI_UNIT($,.STERADIAN.)
SOLID_ANGLE_UNIT()
);
#102=UNCERTAINTY_MEASURE_WITH_UNIT(LENGTH_MEASURE(1.E-6),#99,
'DISTANCE_ACCURACY_VALUE',
'Maximum model space distance between geometric entities at asserted c
onnectivities');
#103=(
GEOMETRIC_REPRESENTATION_CONTEXT(3)
GLOBAL_UNCERTAINTY_ASSIGNED_CONTEXT((#102))
GLOBAL_UNIT_ASSIGNED_CONTEXT((#101,#100,#99))
REPRESENTATION_CONTEXT('ID1','3D')
);
#104=TOROIDAL_SURFACE('',#200,7.3093931324706,4.);
#105=CYLINDRICAL_SURFACE('',#198,4.5);
#106=CYLINDRICAL_SURFACE('',#204,5.);
#107=CONICAL_SURFACE('',#194,5.25,0.785398163397448);
#108=CONICAL_SURFACE('',#196,5.25,0.463647609000806);
#109=CONICAL_SURFACE('',#202,4.25,0.785398163397449);
#110=CONICAL_SURFACE('',#206,4.,1.13446401379631);
#111=VERTEX_POINT('',#242);
#112=VERTEX_POINT('',#245);
#113=VERTEX_POINT('',#248);
#114=VERTEX_POINT('',#251);
#115=VERTEX_POINT('',#254);
#116=VERTEX_POINT('',#257);
#117=VERTEX_POINT('',#260);
#118=VERTEX_POINT('',#263);
#119=CIRCLE('',#193,4.5);
#120=CIRCLE('',#195,6.);
#121=CIRCLE('',#197,4.5);
#122=CIRCLE('',#199,4.5);
#123=CIRCLE('',#201,3.5);
#124=CIRCLE('',#203,5.);
#125=CIRCLE('',#205,5.);
#126=CIRCLE('',#207,3.);
#127=EDGE_CURVE('',#111,#111,#119,.T.);
#128=EDGE_CURVE('',#112,#112,#120,.T.);
#129=EDGE_CURVE('',#113,#113,#121,.T.);
#130=EDGE_CURVE('',#114,#114,#122,.T.);
#131=EDGE_CURVE('',#115,#115,#123,.T.);
#132=EDGE_CURVE('',#116,#116,#124,.T.);
#133=EDGE_CURVE('',#117,#117,#125,.T.);
#134=EDGE_CURVE('',#118,#118,#126,.T.);
#135=ORIENTED_EDGE('',*,*,#127,.F.);
#136=ORIENTED_EDGE('',*,*,#128,.F.);
#137=ORIENTED_EDGE('',*,*,#127,.T.);
#138=ORIENTED_EDGE('',*,*,#129,.F.);
#139=ORIENTED_EDGE('',*,*,#128,.T.);
#140=ORIENTED_EDGE('',*,*,#130,.F.);
#141=ORIENTED_EDGE('',*,*,#129,.T.);
#142=ORIENTED_EDGE('',*,*,#131,.F.);
#143=ORIENTED_EDGE('',*,*,#130,.T.);
#144=ORIENTED_EDGE('',*,*,#132,.F.);
#145=ORIENTED_EDGE('',*,*,#131,.T.);
#146=ORIENTED_EDGE('',*,*,#133,.F.);
#147=ORIENTED_EDGE('',*,*,#132,.T.);
#148=ORIENTED_EDGE('',*,*,#134,.F.);
#149=ORIENTED_EDGE('',*,*,#133,.T.);
#150=ORIENTED_EDGE('',*,*,#134,.T.);
#151=EDGE_LOOP('',(#135));
#152=EDGE_LOOP('',(#136));
#153=EDGE_LOOP('',(#137));
#154=EDGE_LOOP('',(#138));
#155=EDGE_LOOP('',(#139));
#156=EDGE_LOOP('',(#140));
#157=EDGE_LOOP('',(#141));
#158=EDGE_LOOP('',(#142));
#159=EDGE_LOOP('',(#143));
#160=EDGE_LOOP('',(#144));
#161=EDGE_LOOP('',(#145));
#162=EDGE_LOOP('',(#146));
#163=EDGE_LOOP('',(#147));
#164=EDGE_LOOP('',(#148));
#165=EDGE_LOOP('',(#149));
#166=EDGE_LOOP('',(#150));
#167=FACE_BOUND('',#151,.T.);
#168=FACE_BOUND('',#152,.T.);
#169=FACE_BOUND('',#153,.T.);
#170=FACE_BOUND('',#154,.T.);
#171=FACE_BOUND('',#155,.T.);
#172=FACE_BOUND('',#156,.T.);
#173=FACE_BOUND('',#157,.T.);
#174=FACE_BOUND('',#158,.T.);
#175=FACE_BOUND('',#159,.T.);
#176=FACE_BOUND('',#160,.T.);
#177=FACE_BOUND('',#161,.T.);
#178=FACE_BOUND('',#162,.T.);
#179=FACE_BOUND('',#163,.T.);
#180=FACE_BOUND('',#164,.T.);
#181=FACE_BOUND('',#165,.T.);
#182=FACE_BOUND('',#166,.T.);
#183=ADVANCED_FACE('',(#167),#265,.T.);
#184=ADVANCED_FACE('',(#168,#169),#107,.T.);
#185=ADVANCED_FACE('',(#170,#171),#108,.T.);
#186=ADVANCED_FACE('',(#172,#173),#105,.T.);
#187=ADVANCED_FACE('',(#174,#175),#104,.F.);
#188=ADVANCED_FACE('',(#176,#177),#109,.T.);
#189=ADVANCED_FACE('',(#178,#179),#106,.T.);
#190=ADVANCED_FACE('',(#180,#181),#110,.T.);
#191=ADVANCED_FACE('',(#182),#266,.T.);
#192=AXIS2_PLACEMENT_3D('',#240,#209,$);
#193=AXIS2_PLACEMENT_3D('',#241,#210,#211);
#194=AXIS2_PLACEMENT_3D('',#243,#212,#213);
#195=AXIS2_PLACEMENT_3D('',#244,#214,#215);
#196=AXIS2_PLACEMENT_3D('',#246,#216,#217);
#197=AXIS2_PLACEMENT_3D('',#247,#218,#219);
#198=AXIS2_PLACEMENT_3D('',#249,#220,#221);
#199=AXIS2_PLACEMENT_3D('',#250,#222,#223);
#200=AXIS2_PLACEMENT_3D('',#252,#224,$);
#201=AXIS2_PLACEMENT_3D('',#253,#225,#226);
#202=AXIS2_PLACEMENT_3D('',#255,#227,#228);
#203=AXIS2_PLACEMENT_3D('',#256,#229,#230);
#204=AXIS2_PLACEMENT_3D('',#258,#231,#232);
#205=AXIS2_PLACEMENT_3D('',#259,#233,#234);
#206=AXIS2_PLACEMENT_3D('',#261,#235,#236);
#207=AXIS2_PLACEMENT_3D('',#262,#237,#238);
#208=AXIS2_PLACEMENT_3D('',#264,#239,$);
#209=DIRECTION('',(-1.,-3.94745964311167E-16,0.));
#210=DIRECTION('',(1.,0.,0.));
#211=DIRECTION('',(0.,4.5,0.));
#212=DIRECTION('',(1.,0.,0.));
#213=DIRECTION('',(0.,5.25,0.));
#214=DIRECTION('',(1.,0.,0.));
#215=DIRECTION('',(0.,6.,0.));
#216=DIRECTION('',(-1.,0.,0.));
#217=DIRECTION('',(0.,5.25,0.));
#218=DIRECTION('',(1.,0.,0.));
#219=DIRECTION('',(0.,4.5,0.));
#220=DIRECTION('',(1.,0.,0.));
#221=DIRECTION('',(0.,4.5,0.));
#222=DIRECTION('',(1.,0.,0.));
#223=DIRECTION('',(0.,4.5,0.));
#224=DIRECTION('',(1.,0.,0.));
#225=DIRECTION('',(1.,0.,0.));
#226=DIRECTION('',(0.,3.5,0.));
#227=DIRECTION('',(1.,0.,0.));
#228=DIRECTION('',(0.,4.25,0.));
#229=DIRECTION('',(1.,0.,0.));
#230=DIRECTION('',(0.,5.,0.));
#231=DIRECTION('',(1.,0.,0.));
#232=DIRECTION('',(0.,5.,0.));
#233=DIRECTION('',(1.,0.,0.));
#234=DIRECTION('',(0.,5.,0.));
#235=DIRECTION('',(-1.,0.,0.));
#236=DIRECTION('',(0.,4.,0.));
#237=DIRECTION('',(1.,0.,0.));
#238=DIRECTION('',(0.,3.,0.));
#239=DIRECTION('',(1.,0.,0.));
#240=CARTESIAN_POINT('',(-14.5,2.25,0.));
#241=CARTESIAN_POINT('',(-14.5,0.,0.));
#242=CARTESIAN_POINT('',(-14.5,4.5,0.));
#243=CARTESIAN_POINT('',(-13.75,0.,0.));
#244=CARTESIAN_POINT('',(-13.,0.,0.));
#245=CARTESIAN_POINT('',(-13.,6.,0.));
#246=CARTESIAN_POINT('',(-11.5,0.,0.));
#247=CARTESIAN_POINT('',(-10.,0.,0.));
#248=CARTESIAN_POINT('',(-10.,4.5,0.));
#249=CARTESIAN_POINT('',(-9.25,0.,0.));
#250=CARTESIAN_POINT('',(-8.5,0.,0.));
#251=CARTESIAN_POINT('',(-8.5,4.5,0.));
#252=CARTESIAN_POINT('',(-5.65266611946772,0.,0.));
#253=CARTESIAN_POINT('',(-4.43261531631,0.,0.));
#254=CARTESIAN_POINT('',(-4.43261531631,3.5,0.));
#255=CARTESIAN_POINT('',(-3.68261531631,0.,0.));
#256=CARTESIAN_POINT('',(-2.93261531631,0.,0.));
#257=CARTESIAN_POINT('',(-2.93261531631,5.,0.));
#258=CARTESIAN_POINT('',(-1.93261531631,0.,0.));
#259=CARTESIAN_POINT('',(-0.932615316309998,0.,0.));
#260=CARTESIAN_POINT('',(-0.932615316309998,5.,0.));
#261=CARTESIAN_POINT('',(-0.466307658154999,0.,0.));
#262=CARTESIAN_POINT('',(0.,0.,0.));
#263=CARTESIAN_POINT('',(0.,3.,0.));
#264=CARTESIAN_POINT('',(0.,1.5,0.));
#265=PLANE('',#192);
#266=PLANE('',#208);
#267=CLOSED_SHELL('',(#183,#184,#185,#186,#187,#188,#189,#190,#191));
#268=MANIFOLD_SOLID_BREP('',#267);
#269=ADVANCED_BREP_SHAPE_REPRESENTATION('',(#268),#103);
ENDSEC;
END-ISO-10303-21;
