ISO-10303-21;
HEADER;
/* Generated by software containing ST-Developer
 * from STEP Tools, Inc. (www.steptools.com) 
 */

FILE_DESCRIPTION(
/* description */ ('Alibre Inc.'),
/* implementation_level */ '2;1');

FILE_NAME(
/* name */ 'export-4D31D980-0EF7-485D-9A88-594CE5BE3B6C',
/* time_stamp */ '2025-03-27T17:55:56+08:00',
/* author */ (''),
/* organization */ (''),
/* preprocessor_version */ 'ST-DEVELOPER v17',
/* originating_system */ 'Alibre',
/* authorisation */ '');

FILE_SCHEMA (('CONFIG_CONTROL_DESIGN'));
ENDSEC;

DATA;
#10=MECHANICAL_CONTEXT('detailed design',#18,'mechanical');
#11=PRODUCT_RELATED_PRODUCT_CATEGORY('detail','',(#98));
#12=CC_DESIGN_SECURITY_CLASSIFICATION(#14,(#97));
#13=SECURITY_CLASSIFICATION_LEVEL('unclassified');
#14=SECURITY_CLASSIFICATION('name','Security for version',#13);
#15=SHAPE_DEFINITION_REPRESENTATION(#16,#340);
#16=PRODUCT_DEFINITION_SHAPE('','DefinitionDesc',#96);
#17=APPLICATION_PROTOCOL_DEFINITION('AP definition status',
'config_control_design',1994,#18);
#18=APPLICATION_CONTEXT(
'control the configuration of three dimensional design');
#19=DESIGN_CONTEXT('detailed design',#18,'design');
#20=PERSON_AND_ORGANIZATION_ROLE('creator');
#21=PERSON_AND_ORGANIZATION_ROLE('classification_officer');
#22=PERSON_AND_ORGANIZATION_ROLE('creator');
#23=PERSON_AND_ORGANIZATION_ROLE('design_supplier');
#24=PERSON_AND_ORGANIZATION_ROLE('design_owner');
#25=CC_DESIGN_PERSON_AND_ORGANIZATION_ASSIGNMENT(#57,#20,(#96));
#26=CC_DESIGN_PERSON_AND_ORGANIZATION_ASSIGNMENT(#60,#21,(#14));
#27=CC_DESIGN_PERSON_AND_ORGANIZATION_ASSIGNMENT(#61,#22,(#97));
#28=CC_DESIGN_PERSON_AND_ORGANIZATION_ASSIGNMENT(#62,#23,(#97));
#29=CC_DESIGN_PERSON_AND_ORGANIZATION_ASSIGNMENT(#63,#24,(#98));
#30=DATE_TIME_ROLE('creation_date');
#31=DATE_TIME_ROLE('classification_date');
#32=CC_DESIGN_DATE_AND_TIME_ASSIGNMENT(#86,#30,(#96));
#33=CC_DESIGN_DATE_AND_TIME_ASSIGNMENT(#89,#31,(#14));
#34=CC_DESIGN_APPROVAL(#93,(#96));
#35=CC_DESIGN_APPROVAL(#94,(#97));
#36=CC_DESIGN_APPROVAL(#95,(#14));
#37=APPROVAL_PERSON_ORGANIZATION(#56,#93,#64);
#38=APPROVAL_PERSON_ORGANIZATION(#58,#94,#65);
#39=APPROVAL_PERSON_ORGANIZATION(#59,#95,#66);
#40=ORGANIZATION('DEFINITION_APPROVEDBY_ORG_ID',
'DEFINITION_APPROVEDBY_ORG_NAME','DEFINITION_APPROVEDBY_ORG_DESCR');
#41=ORGANIZATION('DEF_CREATOR_ORG_ID','DEF_CREATOR_ORG_NAME',
'DEF_CREATOR_ORG_DESCR');
#42=ORGANIZATION('APPROVEDBY_ORG_ID','APPROVEDBY_ORG_NAME',
'APPROVEDBY_ORG_DESCR');
#43=ORGANIZATION('SECURITY_APPROVEDBY_ORG_ID',
'SECURITY_APPROVEDBY_ORG_NAME','SECURITY_APPROVEDBY_ORG_DESCR');
#44=ORGANIZATION('CLASSOFFICER_ORG_ID','CLASSOFFICER_ORG_NAME',
'CLASSOFFICER_ORG_DESCR');
#45=ORGANIZATION('CREATOR_ORG_ID','CREATOR_ORG_NAME',
'CREATOR_ORG_DESCR');
#46=ORGANIZATION('SUPPLIER_ORG_ID','SUPPLIER_ORG_NAME',
'SUPPLIER_ORG_DESCR');
#47=ORGANIZATION('OWNER_ORG_ID','OWNER_ORG_NAME','OWNER_ORG_DESCR');
#48=PERSON('DEFINITION_approverID','DEFINITION_APPROVEDBY_LASTNAME',
'DEFINITION_APPROVEDBY_FIRSTNAME',$,$,$);
#49=PERSON('DEF_createrID','DEF_CREATOR_LASTNAME',
'DEF_CREATOR_FIRSTNAME',$,$,$);
#50=PERSON('approverID','APPROVEDBY_LASTNAME','APPROVEDBY_FIRSTNAME',$,
$,$);
#51=PERSON('SECURITY_approverID','SECURITY_LASTNAME',
'SECURITY_APPROVEDBY_FIRSTNAME',$,$,$);
#52=PERSON('classifierID','CLASSOFFICER_LASTNAME',
'CLASSOFFICER_FIRSTNAME',$,$,$);
#53=PERSON('createrID','CREATOR_LASTNAME','CREATOR_FIRSTNAME',$,$,$);
#54=PERSON('supplierID','SUPPLIER_LASTNAME','SUPPLIER_FIRSTNAME',$,$,$);
#55=PERSON('ownerID','OWNER_LASTNAME','OWNER_FIRSTNAME',$,$,$);
#56=PERSON_AND_ORGANIZATION(#48,#40);
#57=PERSON_AND_ORGANIZATION(#49,#41);
#58=PERSON_AND_ORGANIZATION(#50,#42);
#59=PERSON_AND_ORGANIZATION(#51,#43);
#60=PERSON_AND_ORGANIZATION(#52,#44);
#61=PERSON_AND_ORGANIZATION(#53,#45);
#62=PERSON_AND_ORGANIZATION(#54,#46);
#63=PERSON_AND_ORGANIZATION(#55,#47);
#64=APPROVAL_ROLE('definition_approval');
#65=APPROVAL_ROLE('version_approval');
#66=APPROVAL_ROLE('security_approval');
#67=APPROVAL_DATE_TIME(#85,#93);
#68=APPROVAL_DATE_TIME(#87,#94);
#69=APPROVAL_DATE_TIME(#88,#95);
#70=COORDINATED_UNIVERSAL_TIME_OFFSET(8,0,.AHEAD.);
#71=COORDINATED_UNIVERSAL_TIME_OFFSET(8,0,.AHEAD.);
#72=COORDINATED_UNIVERSAL_TIME_OFFSET(8,0,.AHEAD.);
#73=COORDINATED_UNIVERSAL_TIME_OFFSET(8,0,.AHEAD.);
#74=COORDINATED_UNIVERSAL_TIME_OFFSET(8,0,.AHEAD.);
#75=LOCAL_TIME(17,13,57.,#70);
#76=LOCAL_TIME(17,13,57.,#71);
#77=LOCAL_TIME(17,13,57.,#72);
#78=LOCAL_TIME(17,13,57.,#73);
#79=LOCAL_TIME(17,13,57.,#74);
#80=CALENDAR_DATE(2025,27,3);
#81=CALENDAR_DATE(2025,27,3);
#82=CALENDAR_DATE(2025,27,3);
#83=CALENDAR_DATE(2025,27,3);
#84=CALENDAR_DATE(2025,27,3);
#85=DATE_AND_TIME(#80,#75);
#86=DATE_AND_TIME(#81,#76);
#87=DATE_AND_TIME(#82,#77);
#88=DATE_AND_TIME(#83,#78);
#89=DATE_AND_TIME(#84,#79);
#90=APPROVAL_STATUS('not_yet_approved');
#91=APPROVAL_STATUS('not_yet_approved');
#92=APPROVAL_STATUS('not_yet_approved');
#93=APPROVAL(#90,'defintion approval');
#94=APPROVAL(#91,'version approval');
#95=APPROVAL(#92,'security approval');
#96=PRODUCT_DEFINITION('DefinitionID','DefinitionDesc',#97,#19);
#97=PRODUCT_DEFINITION_FORMATION_WITH_SPECIFIED_SOURCE(
'PRODUCT_VERSION_ID','PRODUCT_VERSION_DESCR',#98,.NOT_KNOWN.);
#98=PRODUCT('','3600','',(#10));
#99=(
LENGTH_UNIT()
NAMED_UNIT(*)
SI_UNIT(.CENTI.,.METRE.)
);
#100=(
NAMED_UNIT(*)
PLANE_ANGLE_UNIT()
SI_UNIT($,.RADIAN.)
);
#101=(
NAMED_UNIT(*)
SI_UNIT($,.STERADIAN.)
SOLID_ANGLE_UNIT()
);
#102=UNCERTAINTY_MEASURE_WITH_UNIT(LENGTH_MEASURE(1.E-6),#99,
'DISTANCE_ACCURACY_VALUE',
'Maximum model space distance between geometric entities at asserted c
onnectivities');
#103=(
GEOMETRIC_REPRESENTATION_CONTEXT(3)
GLOBAL_UNCERTAINTY_ASSIGNED_CONTEXT((#102))
GLOBAL_UNIT_ASSIGNED_CONTEXT((#101,#100,#99))
REPRESENTATION_CONTEXT('ID1','3D')
);
#104=PLANE('',#233);
#105=PLANE('',#237);
#106=PLANE('',#241);
#107=PLANE('',#245);
#108=PLANE('',#249);
#109=PLANE('',#253);
#110=VERTEX_POINT('',#298);
#111=VERTEX_POINT('',#300);
#112=VERTEX_POINT('',#303);
#113=VERTEX_POINT('',#306);
#114=VERTEX_POINT('',#309);
#115=VERTEX_POINT('',#312);
#116=VERTEX_POINT('',#315);
#117=VERTEX_POINT('',#318);
#118=VERTEX_POINT('',#321);
#119=VERTEX_POINT('',#324);
#120=VERTEX_POINT('',#327);
#121=VERTEX_POINT('',#330);
#122=CIRCLE('',#231,8.5015);
#123=CIRCLE('',#232,8.5015);
#124=CIRCLE('',#234,9.2515);
#125=CIRCLE('',#236,9.2515);
#126=CIRCLE('',#238,8.5515);
#127=CIRCLE('',#240,8.5515);
#128=CIRCLE('',#242,12.5);
#129=CIRCLE('',#244,12.5);
#130=CIRCLE('',#246,18.5);
#131=CIRCLE('',#248,18.5);
#132=CIRCLE('',#250,13.9875);
#133=CIRCLE('',#252,13.9875);
#134=EDGE_CURVE('',#110,#110,#122,.T.);
#135=EDGE_CURVE('',#111,#111,#123,.T.);
#136=EDGE_CURVE('',#112,#112,#124,.T.);
#137=EDGE_CURVE('',#113,#113,#125,.T.);
#138=EDGE_CURVE('',#114,#114,#126,.T.);
#139=EDGE_CURVE('',#115,#115,#127,.T.);
#140=EDGE_CURVE('',#116,#116,#128,.T.);
#141=EDGE_CURVE('',#117,#117,#129,.T.);
#142=EDGE_CURVE('',#118,#118,#130,.T.);
#143=EDGE_CURVE('',#119,#119,#131,.T.);
#144=EDGE_CURVE('',#120,#120,#132,.T.);
#145=EDGE_CURVE('',#121,#121,#133,.T.);
#146=ORIENTED_EDGE('',*,*,#134,.F.);
#147=ORIENTED_EDGE('',*,*,#135,.T.);
#148=ORIENTED_EDGE('',*,*,#136,.F.);
#149=ORIENTED_EDGE('',*,*,#134,.T.);
#150=ORIENTED_EDGE('',*,*,#137,.F.);
#151=ORIENTED_EDGE('',*,*,#136,.T.);
#152=ORIENTED_EDGE('',*,*,#138,.F.);
#153=ORIENTED_EDGE('',*,*,#137,.T.);
#154=ORIENTED_EDGE('',*,*,#139,.F.);
#155=ORIENTED_EDGE('',*,*,#138,.T.);
#156=ORIENTED_EDGE('',*,*,#140,.F.);
#157=ORIENTED_EDGE('',*,*,#139,.T.);
#158=ORIENTED_EDGE('',*,*,#141,.F.);
#159=ORIENTED_EDGE('',*,*,#140,.T.);
#160=ORIENTED_EDGE('',*,*,#142,.F.);
#161=ORIENTED_EDGE('',*,*,#141,.T.);
#162=ORIENTED_EDGE('',*,*,#143,.F.);
#163=ORIENTED_EDGE('',*,*,#142,.T.);
#164=ORIENTED_EDGE('',*,*,#144,.F.);
#165=ORIENTED_EDGE('',*,*,#143,.T.);
#166=ORIENTED_EDGE('',*,*,#145,.F.);
#167=ORIENTED_EDGE('',*,*,#144,.T.);
#168=ORIENTED_EDGE('',*,*,#135,.F.);
#169=ORIENTED_EDGE('',*,*,#145,.T.);
#170=EDGE_LOOP('',(#146));
#171=EDGE_LOOP('',(#147));
#172=EDGE_LOOP('',(#148));
#173=EDGE_LOOP('',(#149));
#174=EDGE_LOOP('',(#150));
#175=EDGE_LOOP('',(#151));
#176=EDGE_LOOP('',(#152));
#177=EDGE_LOOP('',(#153));
#178=EDGE_LOOP('',(#154));
#179=EDGE_LOOP('',(#155));
#180=EDGE_LOOP('',(#156));
#181=EDGE_LOOP('',(#157));
#182=EDGE_LOOP('',(#158));
#183=EDGE_LOOP('',(#159));
#184=EDGE_LOOP('',(#160));
#185=EDGE_LOOP('',(#161));
#186=EDGE_LOOP('',(#162));
#187=EDGE_LOOP('',(#163));
#188=EDGE_LOOP('',(#164));
#189=EDGE_LOOP('',(#165));
#190=EDGE_LOOP('',(#166));
#191=EDGE_LOOP('',(#167));
#192=EDGE_LOOP('',(#168));
#193=EDGE_LOOP('',(#169));
#194=FACE_BOUND('',#170,.T.);
#195=FACE_BOUND('',#171,.T.);
#196=FACE_BOUND('',#172,.T.);
#197=FACE_BOUND('',#173,.T.);
#198=FACE_BOUND('',#174,.T.);
#199=FACE_BOUND('',#175,.T.);
#200=FACE_BOUND('',#176,.T.);
#201=FACE_BOUND('',#177,.T.);
#202=FACE_BOUND('',#178,.T.);
#203=FACE_BOUND('',#179,.T.);
#204=FACE_BOUND('',#180,.T.);
#205=FACE_BOUND('',#181,.T.);
#206=FACE_BOUND('',#182,.T.);
#207=FACE_BOUND('',#183,.T.);
#208=FACE_BOUND('',#184,.T.);
#209=FACE_BOUND('',#185,.T.);
#210=FACE_BOUND('',#186,.T.);
#211=FACE_BOUND('',#187,.T.);
#212=FACE_BOUND('',#188,.T.);
#213=FACE_BOUND('',#189,.T.);
#214=FACE_BOUND('',#190,.T.);
#215=FACE_BOUND('',#191,.T.);
#216=FACE_BOUND('',#192,.T.);
#217=FACE_BOUND('',#193,.T.);
#218=ADVANCED_FACE('',(#194,#195),#332,.F.);
#219=ADVANCED_FACE('',(#196,#197),#104,.T.);
#220=ADVANCED_FACE('',(#198,#199),#333,.F.);
#221=ADVANCED_FACE('',(#200,#201),#105,.T.);
#222=ADVANCED_FACE('',(#202,#203),#334,.F.);
#223=ADVANCED_FACE('',(#204,#205),#106,.T.);
#224=ADVANCED_FACE('',(#206,#207),#335,.T.);
#225=ADVANCED_FACE('',(#208,#209),#107,.T.);
#226=ADVANCED_FACE('',(#210,#211),#336,.T.);
#227=ADVANCED_FACE('',(#212,#213),#108,.T.);
#228=ADVANCED_FACE('',(#214,#215),#337,.T.);
#229=ADVANCED_FACE('',(#216,#217),#109,.T.);
#230=AXIS2_PLACEMENT_3D('',#296,#254,#255);
#231=AXIS2_PLACEMENT_3D('',#297,#256,#257);
#232=AXIS2_PLACEMENT_3D('',#299,#258,#259);
#233=AXIS2_PLACEMENT_3D('',#301,#260,$);
#234=AXIS2_PLACEMENT_3D('',#302,#261,#262);
#235=AXIS2_PLACEMENT_3D('',#304,#263,#264);
#236=AXIS2_PLACEMENT_3D('',#305,#265,#266);
#237=AXIS2_PLACEMENT_3D('',#307,#267,$);
#238=AXIS2_PLACEMENT_3D('',#308,#268,#269);
#239=AXIS2_PLACEMENT_3D('',#310,#270,#271);
#240=AXIS2_PLACEMENT_3D('',#311,#272,#273);
#241=AXIS2_PLACEMENT_3D('',#313,#274,$);
#242=AXIS2_PLACEMENT_3D('',#314,#275,#276);
#243=AXIS2_PLACEMENT_3D('',#316,#277,#278);
#244=AXIS2_PLACEMENT_3D('',#317,#279,#280);
#245=AXIS2_PLACEMENT_3D('',#319,#281,$);
#246=AXIS2_PLACEMENT_3D('',#320,#282,#283);
#247=AXIS2_PLACEMENT_3D('',#322,#284,#285);
#248=AXIS2_PLACEMENT_3D('',#323,#286,#287);
#249=AXIS2_PLACEMENT_3D('',#325,#288,$);
#250=AXIS2_PLACEMENT_3D('',#326,#289,#290);
#251=AXIS2_PLACEMENT_3D('',#328,#291,#292);
#252=AXIS2_PLACEMENT_3D('',#329,#293,#294);
#253=AXIS2_PLACEMENT_3D('',#331,#295,$);
#254=DIRECTION('',(0.,0.,1.));
#255=DIRECTION('',(0.,8.5015,0.));
#256=DIRECTION('',(0.,0.,1.));
#257=DIRECTION('',(0.,8.5015,0.));
#258=DIRECTION('',(0.,0.,1.));
#259=DIRECTION('',(0.,8.5015,0.));
#260=DIRECTION('',(0.,0.,-1.));
#261=DIRECTION('',(0.,0.,1.));
#262=DIRECTION('',(0.,9.2515,0.));
#263=DIRECTION('',(0.,0.,1.));
#264=DIRECTION('',(0.,9.2515,0.));
#265=DIRECTION('',(0.,0.,1.));
#266=DIRECTION('',(0.,9.2515,0.));
#267=DIRECTION('',(0.,0.,1.));
#268=DIRECTION('',(0.,0.,1.));
#269=DIRECTION('',(0.,8.5515,0.));
#270=DIRECTION('',(0.,0.,1.));
#271=DIRECTION('',(0.,8.5515,0.));
#272=DIRECTION('',(0.,0.,1.));
#273=DIRECTION('',(0.,8.5515,0.));
#274=DIRECTION('',(0.,-4.4988143330385E-16,-1.));
#275=DIRECTION('',(0.,0.,1.));
#276=DIRECTION('',(0.,12.5,0.));
#277=DIRECTION('',(0.,0.,1.));
#278=DIRECTION('',(0.,12.5,0.));
#279=DIRECTION('',(0.,0.,1.));
#280=DIRECTION('',(0.,12.5,0.));
#281=DIRECTION('',(0.,0.,-1.));
#282=DIRECTION('',(0.,0.,1.));
#283=DIRECTION('',(0.,18.5,0.));
#284=DIRECTION('',(0.,0.,1.));
#285=DIRECTION('',(0.,18.5,0.));
#286=DIRECTION('',(0.,0.,1.));
#287=DIRECTION('',(0.,18.5,0.));
#288=DIRECTION('',(0.,0.,1.));
#289=DIRECTION('',(0.,0.,1.));
#290=DIRECTION('',(0.,13.9875,0.));
#291=DIRECTION('',(0.,0.,1.));
#292=DIRECTION('',(0.,13.9875,0.));
#293=DIRECTION('',(0.,0.,1.));
#294=DIRECTION('',(0.,13.9875,0.));
#295=DIRECTION('',(0.,0.,1.));
#296=CARTESIAN_POINT('',(0.,0.,-6.45));
#297=CARTESIAN_POINT('',(0.,0.,-12.9));
#298=CARTESIAN_POINT('',(0.,8.5015,-12.9));
#299=CARTESIAN_POINT('',(0.,0.,0.));
#300=CARTESIAN_POINT('',(0.,8.5015,0.));
#301=CARTESIAN_POINT('',(0.,8.8765,-12.9));
#302=CARTESIAN_POINT('',(0.,0.,-12.9));
#303=CARTESIAN_POINT('',(0.,9.2515,-12.9));
#304=CARTESIAN_POINT('',(0.,0.,-13.45));
#305=CARTESIAN_POINT('',(0.,0.,-14.));
#306=CARTESIAN_POINT('',(0.,9.2515,-14.));
#307=CARTESIAN_POINT('',(0.,8.9015,-14.));
#308=CARTESIAN_POINT('',(0.,0.,-14.));
#309=CARTESIAN_POINT('',(0.,8.5515,-14.));
#310=CARTESIAN_POINT('',(0.,0.,-14.5));
#311=CARTESIAN_POINT('',(0.,0.,-15.));
#312=CARTESIAN_POINT('',(0.,8.5515,-15.));
#313=CARTESIAN_POINT('',(0.,10.52575,-15.));
#314=CARTESIAN_POINT('',(0.,0.,-15.));
#315=CARTESIAN_POINT('',(0.,12.5,-15.));
#316=CARTESIAN_POINT('',(0.,0.,-10.));
#317=CARTESIAN_POINT('',(0.,0.,-5.));
#318=CARTESIAN_POINT('',(0.,12.5,-5.));
#319=CARTESIAN_POINT('',(0.,15.5,-5.));
#320=CARTESIAN_POINT('',(0.,0.,-5.));
#321=CARTESIAN_POINT('',(0.,18.5,-5.));
#322=CARTESIAN_POINT('',(0.,0.,-3.));
#323=CARTESIAN_POINT('',(0.,0.,-1.));
#324=CARTESIAN_POINT('',(0.,18.5,-1.));
#325=CARTESIAN_POINT('',(0.,16.24375,-1.));
#326=CARTESIAN_POINT('',(0.,0.,-1.));
#327=CARTESIAN_POINT('',(0.,13.9875,-1.));
#328=CARTESIAN_POINT('',(0.,0.,-0.5));
#329=CARTESIAN_POINT('',(0.,0.,0.));
#330=CARTESIAN_POINT('',(0.,13.9875,0.));
#331=CARTESIAN_POINT('',(0.,11.2445,0.));
#332=CYLINDRICAL_SURFACE('',#230,8.5015);
#333=CYLINDRICAL_SURFACE('',#235,9.2515);
#334=CYLINDRICAL_SURFACE('',#239,8.5515);
#335=CYLINDRICAL_SURFACE('',#243,12.5);
#336=CYLINDRICAL_SURFACE('',#247,18.5);
#337=CYLINDRICAL_SURFACE('',#251,13.9875);
#338=CLOSED_SHELL('',(#218,#219,#220,#221,#222,#223,#224,#225,#226,#227,
#228,#229));
#339=MANIFOLD_SOLID_BREP('',#338);
#340=ADVANCED_BREP_SHAPE_REPRESENTATION('',(#339),#103);
ENDSEC;
END-ISO-10303-21;
