ISO-10303-21;
HEADER;
/* Generated by software containing ST-Developer
 * from STEP Tools, Inc. (www.steptools.com) 
 */

FILE_DESCRIPTION(
/* description */ ('Alibre Inc.'),
/* implementation_level */ '2;1');

FILE_NAME(
/* name */ 'export-954A81B1-C5F3-4945-AE6C-1E521E061417',
/* time_stamp */ '2025-03-31T07:06:44+08:00',
/* author */ (''),
/* organization */ (''),
/* preprocessor_version */ 'ST-DEVELOPER v17',
/* originating_system */ 'Alibre',
/* authorisation */ '');

FILE_SCHEMA (('CONFIG_CONTROL_DESIGN'));
ENDSEC;

DATA;
#10=MECHANICAL_CONTEXT('detailed design',#18,'mechanical');
#11=PRODUCT_RELATED_PRODUCT_CATEGORY('detail','',(#98));
#12=CC_DESIGN_SECURITY_CLASSIFICATION(#14,(#97));
#13=SECURITY_CLASSIFICATION_LEVEL('unclassified');
#14=SECURITY_CLASSIFICATION('name','Security for version',#13);
#15=SHAPE_DEFINITION_REPRESENTATION(#16,#360);
#16=PRODUCT_DEFINITION_SHAPE('','DefinitionDesc',#96);
#17=APPLICATION_PROTOCOL_DEFINITION('AP definition status',
'config_control_design',1994,#18);
#18=APPLICATION_CONTEXT(
'control the configuration of three dimensional design');
#19=DESIGN_CONTEXT('detailed design',#18,'design');
#20=PERSON_AND_ORGANIZATION_ROLE('creator');
#21=PERSON_AND_ORGANIZATION_ROLE('classification_officer');
#22=PERSON_AND_ORGANIZATION_ROLE('creator');
#23=PERSON_AND_ORGANIZATION_ROLE('design_supplier');
#24=PERSON_AND_ORGANIZATION_ROLE('design_owner');
#25=CC_DESIGN_PERSON_AND_ORGANIZATION_ASSIGNMENT(#57,#20,(#96));
#26=CC_DESIGN_PERSON_AND_ORGANIZATION_ASSIGNMENT(#60,#21,(#14));
#27=CC_DESIGN_PERSON_AND_ORGANIZATION_ASSIGNMENT(#61,#22,(#97));
#28=CC_DESIGN_PERSON_AND_ORGANIZATION_ASSIGNMENT(#62,#23,(#97));
#29=CC_DESIGN_PERSON_AND_ORGANIZATION_ASSIGNMENT(#63,#24,(#98));
#30=DATE_TIME_ROLE('creation_date');
#31=DATE_TIME_ROLE('classification_date');
#32=CC_DESIGN_DATE_AND_TIME_ASSIGNMENT(#86,#30,(#96));
#33=CC_DESIGN_DATE_AND_TIME_ASSIGNMENT(#89,#31,(#14));
#34=CC_DESIGN_APPROVAL(#93,(#96));
#35=CC_DESIGN_APPROVAL(#94,(#97));
#36=CC_DESIGN_APPROVAL(#95,(#14));
#37=APPROVAL_PERSON_ORGANIZATION(#56,#93,#64);
#38=APPROVAL_PERSON_ORGANIZATION(#58,#94,#65);
#39=APPROVAL_PERSON_ORGANIZATION(#59,#95,#66);
#40=ORGANIZATION('DEFINITION_APPROVEDBY_ORG_ID',
'DEFINITION_APPROVEDBY_ORG_NAME','DEFINITION_APPROVEDBY_ORG_DESCR');
#41=ORGANIZATION('DEF_CREATOR_ORG_ID','DEF_CREATOR_ORG_NAME',
'DEF_CREATOR_ORG_DESCR');
#42=ORGANIZATION('APPROVEDBY_ORG_ID','APPROVEDBY_ORG_NAME',
'APPROVEDBY_ORG_DESCR');
#43=ORGANIZATION('SECURITY_APPROVEDBY_ORG_ID',
'SECURITY_APPROVEDBY_ORG_NAME','SECURITY_APPROVEDBY_ORG_DESCR');
#44=ORGANIZATION('CLASSOFFICER_ORG_ID','CLASSOFFICER_ORG_NAME',
'CLASSOFFICER_ORG_DESCR');
#45=ORGANIZATION('CREATOR_ORG_ID','CREATOR_ORG_NAME',
'CREATOR_ORG_DESCR');
#46=ORGANIZATION('SUPPLIER_ORG_ID','SUPPLIER_ORG_NAME',
'SUPPLIER_ORG_DESCR');
#47=ORGANIZATION('OWNER_ORG_ID','OWNER_ORG_NAME','OWNER_ORG_DESCR');
#48=PERSON('DEFINITION_approverID','DEFINITION_APPROVEDBY_LASTNAME',
'DEFINITION_APPROVEDBY_FIRSTNAME',$,$,$);
#49=PERSON('DEF_createrID','DEF_CREATOR_LASTNAME',
'DEF_CREATOR_FIRSTNAME',$,$,$);
#50=PERSON('approverID','APPROVEDBY_LASTNAME','APPROVEDBY_FIRSTNAME',$,
$,$);
#51=PERSON('SECURITY_approverID','SECURITY_LASTNAME',
'SECURITY_APPROVEDBY_FIRSTNAME',$,$,$);
#52=PERSON('classifierID','CLASSOFFICER_LASTNAME',
'CLASSOFFICER_FIRSTNAME',$,$,$);
#53=PERSON('createrID','CREATOR_LASTNAME','CREATOR_FIRSTNAME',$,$,$);
#54=PERSON('supplierID','SUPPLIER_LASTNAME','SUPPLIER_FIRSTNAME',$,$,$);
#55=PERSON('ownerID','OWNER_LASTNAME','OWNER_FIRSTNAME',$,$,$);
#56=PERSON_AND_ORGANIZATION(#48,#40);
#57=PERSON_AND_ORGANIZATION(#49,#41);
#58=PERSON_AND_ORGANIZATION(#50,#42);
#59=PERSON_AND_ORGANIZATION(#51,#43);
#60=PERSON_AND_ORGANIZATION(#52,#44);
#61=PERSON_AND_ORGANIZATION(#53,#45);
#62=PERSON_AND_ORGANIZATION(#54,#46);
#63=PERSON_AND_ORGANIZATION(#55,#47);
#64=APPROVAL_ROLE('definition_approval');
#65=APPROVAL_ROLE('version_approval');
#66=APPROVAL_ROLE('security_approval');
#67=APPROVAL_DATE_TIME(#85,#93);
#68=APPROVAL_DATE_TIME(#87,#94);
#69=APPROVAL_DATE_TIME(#88,#95);
#70=COORDINATED_UNIVERSAL_TIME_OFFSET(8,0,.AHEAD.);
#71=COORDINATED_UNIVERSAL_TIME_OFFSET(8,0,.AHEAD.);
#72=COORDINATED_UNIVERSAL_TIME_OFFSET(8,0,.AHEAD.);
#73=COORDINATED_UNIVERSAL_TIME_OFFSET(8,0,.AHEAD.);
#74=COORDINATED_UNIVERSAL_TIME_OFFSET(8,0,.AHEAD.);
#75=LOCAL_TIME(17,13,57.,#70);
#76=LOCAL_TIME(17,13,57.,#71);
#77=LOCAL_TIME(17,13,57.,#72);
#78=LOCAL_TIME(17,13,57.,#73);
#79=LOCAL_TIME(17,13,57.,#74);
#80=CALENDAR_DATE(2025,27,3);
#81=CALENDAR_DATE(2025,27,3);
#82=CALENDAR_DATE(2025,27,3);
#83=CALENDAR_DATE(2025,27,3);
#84=CALENDAR_DATE(2025,27,3);
#85=DATE_AND_TIME(#80,#75);
#86=DATE_AND_TIME(#81,#76);
#87=DATE_AND_TIME(#82,#77);
#88=DATE_AND_TIME(#83,#78);
#89=DATE_AND_TIME(#84,#79);
#90=APPROVAL_STATUS('not_yet_approved');
#91=APPROVAL_STATUS('not_yet_approved');
#92=APPROVAL_STATUS('not_yet_approved');
#93=APPROVAL(#90,'defintion approval');
#94=APPROVAL(#91,'version approval');
#95=APPROVAL(#92,'security approval');
#96=PRODUCT_DEFINITION('DefinitionID','DefinitionDesc',#97,#19);
#97=PRODUCT_DEFINITION_FORMATION_WITH_SPECIFIED_SOURCE(
'PRODUCT_VERSION_ID','PRODUCT_VERSION_DESCR',#98,.NOT_KNOWN.);
#98=PRODUCT('','3600','',(#10));
#99=(
LENGTH_UNIT()
NAMED_UNIT(*)
SI_UNIT(.CENTI.,.METRE.)
);
#100=(
NAMED_UNIT(*)
PLANE_ANGLE_UNIT()
SI_UNIT($,.RADIAN.)
);
#101=(
NAMED_UNIT(*)
SI_UNIT($,.STERADIAN.)
SOLID_ANGLE_UNIT()
);
#102=UNCERTAINTY_MEASURE_WITH_UNIT(LENGTH_MEASURE(1.E-6),#99,
'DISTANCE_ACCURACY_VALUE',
'Maximum model space distance between geometric entities at asserted c
onnectivities');
#103=(
GEOMETRIC_REPRESENTATION_CONTEXT(3)
GLOBAL_UNCERTAINTY_ASSIGNED_CONTEXT((#102))
GLOBAL_UNIT_ASSIGNED_CONTEXT((#101,#100,#99))
REPRESENTATION_CONTEXT('ID1','3D')
);
#104=CONICAL_SURFACE('',#249,11.115,0.785398163397448);
#105=PLANE('',#244);
#106=PLANE('',#246);
#107=PLANE('',#252);
#108=PLANE('',#256);
#109=PLANE('',#260);
#110=PLANE('',#264);
#111=VERTEX_POINT('',#315);
#112=VERTEX_POINT('',#317);
#113=VERTEX_POINT('',#320);
#114=VERTEX_POINT('',#323);
#115=VERTEX_POINT('',#325);
#116=VERTEX_POINT('',#328);
#117=VERTEX_POINT('',#332);
#118=VERTEX_POINT('',#335);
#119=VERTEX_POINT('',#338);
#120=VERTEX_POINT('',#341);
#121=VERTEX_POINT('',#344);
#122=VERTEX_POINT('',#347);
#123=VERTEX_POINT('',#350);
#124=CIRCLE('',#242,10.415);
#125=CIRCLE('',#243,10.415);
#126=CIRCLE('',#245,10.215);
#127=CIRCLE('',#247,8.5515);
#128=CIRCLE('',#248,10.215);
#129=CIRCLE('',#250,11.115);
#130=CIRCLE('',#253,13.9875);
#131=CIRCLE('',#255,8.5515);
#132=CIRCLE('',#257,12.5);
#133=CIRCLE('',#259,12.5);
#134=CIRCLE('',#261,18.5);
#135=CIRCLE('',#263,18.5);
#136=CIRCLE('',#265,13.9875);
#137=EDGE_CURVE('',#111,#111,#124,.T.);
#138=EDGE_CURVE('',#112,#112,#125,.T.);
#139=EDGE_CURVE('',#113,#113,#126,.T.);
#140=EDGE_CURVE('',#114,#114,#127,.T.);
#141=EDGE_CURVE('',#115,#115,#128,.T.);
#142=EDGE_CURVE('',#116,#116,#129,.T.);
#143=EDGE_CURVE('',#117,#117,#130,.T.);
#144=EDGE_CURVE('',#118,#118,#131,.T.);
#145=EDGE_CURVE('',#119,#119,#132,.T.);
#146=EDGE_CURVE('',#120,#120,#133,.T.);
#147=EDGE_CURVE('',#121,#121,#134,.T.);
#148=EDGE_CURVE('',#122,#122,#135,.T.);
#149=EDGE_CURVE('',#123,#123,#136,.T.);
#150=ORIENTED_EDGE('',*,*,#137,.F.);
#151=ORIENTED_EDGE('',*,*,#138,.F.);
#152=ORIENTED_EDGE('',*,*,#139,.F.);
#153=ORIENTED_EDGE('',*,*,#138,.T.);
#154=ORIENTED_EDGE('',*,*,#140,.F.);
#155=ORIENTED_EDGE('',*,*,#141,.T.);
#156=ORIENTED_EDGE('',*,*,#137,.T.);
#157=ORIENTED_EDGE('',*,*,#142,.T.);
#158=ORIENTED_EDGE('',*,*,#139,.T.);
#159=ORIENTED_EDGE('',*,*,#141,.F.);
#160=ORIENTED_EDGE('',*,*,#143,.T.);
#161=ORIENTED_EDGE('',*,*,#142,.F.);
#162=ORIENTED_EDGE('',*,*,#140,.T.);
#163=ORIENTED_EDGE('',*,*,#144,.F.);
#164=ORIENTED_EDGE('',*,*,#145,.F.);
#165=ORIENTED_EDGE('',*,*,#144,.T.);
#166=ORIENTED_EDGE('',*,*,#146,.F.);
#167=ORIENTED_EDGE('',*,*,#145,.T.);
#168=ORIENTED_EDGE('',*,*,#147,.F.);
#169=ORIENTED_EDGE('',*,*,#146,.T.);
#170=ORIENTED_EDGE('',*,*,#148,.F.);
#171=ORIENTED_EDGE('',*,*,#147,.T.);
#172=ORIENTED_EDGE('',*,*,#149,.F.);
#173=ORIENTED_EDGE('',*,*,#148,.T.);
#174=ORIENTED_EDGE('',*,*,#143,.F.);
#175=ORIENTED_EDGE('',*,*,#149,.T.);
#176=EDGE_LOOP('',(#150));
#177=EDGE_LOOP('',(#151));
#178=EDGE_LOOP('',(#152));
#179=EDGE_LOOP('',(#153));
#180=EDGE_LOOP('',(#154));
#181=EDGE_LOOP('',(#155));
#182=EDGE_LOOP('',(#156));
#183=EDGE_LOOP('',(#157));
#184=EDGE_LOOP('',(#158));
#185=EDGE_LOOP('',(#159));
#186=EDGE_LOOP('',(#160));
#187=EDGE_LOOP('',(#161));
#188=EDGE_LOOP('',(#162));
#189=EDGE_LOOP('',(#163));
#190=EDGE_LOOP('',(#164));
#191=EDGE_LOOP('',(#165));
#192=EDGE_LOOP('',(#166));
#193=EDGE_LOOP('',(#167));
#194=EDGE_LOOP('',(#168));
#195=EDGE_LOOP('',(#169));
#196=EDGE_LOOP('',(#170));
#197=EDGE_LOOP('',(#171));
#198=EDGE_LOOP('',(#172));
#199=EDGE_LOOP('',(#173));
#200=EDGE_LOOP('',(#174));
#201=EDGE_LOOP('',(#175));
#202=FACE_BOUND('',#176,.T.);
#203=FACE_BOUND('',#177,.T.);
#204=FACE_BOUND('',#178,.T.);
#205=FACE_BOUND('',#179,.T.);
#206=FACE_BOUND('',#180,.T.);
#207=FACE_BOUND('',#181,.T.);
#208=FACE_BOUND('',#182,.T.);
#209=FACE_BOUND('',#183,.T.);
#210=FACE_BOUND('',#184,.T.);
#211=FACE_BOUND('',#185,.T.);
#212=FACE_BOUND('',#186,.T.);
#213=FACE_BOUND('',#187,.T.);
#214=FACE_BOUND('',#188,.T.);
#215=FACE_BOUND('',#189,.T.);
#216=FACE_BOUND('',#190,.T.);
#217=FACE_BOUND('',#191,.T.);
#218=FACE_BOUND('',#192,.T.);
#219=FACE_BOUND('',#193,.T.);
#220=FACE_BOUND('',#194,.T.);
#221=FACE_BOUND('',#195,.T.);
#222=FACE_BOUND('',#196,.T.);
#223=FACE_BOUND('',#197,.T.);
#224=FACE_BOUND('',#198,.T.);
#225=FACE_BOUND('',#199,.T.);
#226=FACE_BOUND('',#200,.T.);
#227=FACE_BOUND('',#201,.T.);
#228=ADVANCED_FACE('',(#202,#203),#352,.F.);
#229=ADVANCED_FACE('',(#204,#205),#105,.T.);
#230=ADVANCED_FACE('',(#206,#207),#106,.T.);
#231=ADVANCED_FACE('',(#208,#209),#104,.F.);
#232=ADVANCED_FACE('',(#210,#211),#353,.F.);
#233=ADVANCED_FACE('',(#212,#213),#107,.T.);
#234=ADVANCED_FACE('',(#214,#215),#354,.F.);
#235=ADVANCED_FACE('',(#216,#217),#108,.T.);
#236=ADVANCED_FACE('',(#218,#219),#355,.T.);
#237=ADVANCED_FACE('',(#220,#221),#109,.T.);
#238=ADVANCED_FACE('',(#222,#223),#356,.T.);
#239=ADVANCED_FACE('',(#224,#225),#110,.T.);
#240=ADVANCED_FACE('',(#226,#227),#357,.T.);
#241=AXIS2_PLACEMENT_3D('',#313,#267,#268);
#242=AXIS2_PLACEMENT_3D('',#314,#269,#270);
#243=AXIS2_PLACEMENT_3D('',#316,#271,#272);
#244=AXIS2_PLACEMENT_3D('',#318,#273,$);
#245=AXIS2_PLACEMENT_3D('',#319,#274,#275);
#246=AXIS2_PLACEMENT_3D('',#321,#276,$);
#247=AXIS2_PLACEMENT_3D('',#322,#277,#278);
#248=AXIS2_PLACEMENT_3D('',#324,#279,#280);
#249=AXIS2_PLACEMENT_3D('',#326,#281,#282);
#250=AXIS2_PLACEMENT_3D('',#327,#283,#284);
#251=AXIS2_PLACEMENT_3D('',#329,#285,#286);
#252=AXIS2_PLACEMENT_3D('',#330,#287,$);
#253=AXIS2_PLACEMENT_3D('',#331,#288,#289);
#254=AXIS2_PLACEMENT_3D('',#333,#290,#291);
#255=AXIS2_PLACEMENT_3D('',#334,#292,#293);
#256=AXIS2_PLACEMENT_3D('',#336,#294,$);
#257=AXIS2_PLACEMENT_3D('',#337,#295,#296);
#258=AXIS2_PLACEMENT_3D('',#339,#297,#298);
#259=AXIS2_PLACEMENT_3D('',#340,#299,#300);
#260=AXIS2_PLACEMENT_3D('',#342,#301,$);
#261=AXIS2_PLACEMENT_3D('',#343,#302,#303);
#262=AXIS2_PLACEMENT_3D('',#345,#304,#305);
#263=AXIS2_PLACEMENT_3D('',#346,#306,#307);
#264=AXIS2_PLACEMENT_3D('',#348,#308,$);
#265=AXIS2_PLACEMENT_3D('',#349,#309,#310);
#266=AXIS2_PLACEMENT_3D('',#351,#311,#312);
#267=DIRECTION('',(0.,0.,-1.));
#268=DIRECTION('',(10.415,0.,0.));
#269=DIRECTION('',(0.,0.,-1.));
#270=DIRECTION('',(10.415,0.,0.));
#271=DIRECTION('',(0.,0.,1.));
#272=DIRECTION('',(10.415,0.,0.));
#273=DIRECTION('',(0.,0.,1.));
#274=DIRECTION('',(0.,0.,1.));
#275=DIRECTION('',(10.215,0.,0.));
#276=DIRECTION('',(0.,0.,1.));
#277=DIRECTION('',(0.,0.,1.));
#278=DIRECTION('',(0.,8.5515,0.));
#279=DIRECTION('',(0.,0.,1.));
#280=DIRECTION('',(10.215,0.,0.));
#281=DIRECTION('',(0.,0.,1.));
#282=DIRECTION('',(-11.115,0.,0.));
#283=DIRECTION('',(0.,0.,1.));
#284=DIRECTION('',(-11.115,0.,0.));
#285=DIRECTION('',(0.,0.,-1.));
#286=DIRECTION('',(10.215,0.,0.));
#287=DIRECTION('',(0.,0.,1.));
#288=DIRECTION('',(0.,0.,1.));
#289=DIRECTION('',(0.,13.9875,0.));
#290=DIRECTION('',(0.,0.,1.));
#291=DIRECTION('',(0.,8.5515,0.));
#292=DIRECTION('',(0.,0.,1.));
#293=DIRECTION('',(0.,8.5515,0.));
#294=DIRECTION('',(0.,0.,-1.));
#295=DIRECTION('',(0.,0.,1.));
#296=DIRECTION('',(0.,12.5,0.));
#297=DIRECTION('',(0.,0.,1.));
#298=DIRECTION('',(0.,12.5,0.));
#299=DIRECTION('',(0.,0.,1.));
#300=DIRECTION('',(0.,12.5,0.));
#301=DIRECTION('',(0.,0.,-1.));
#302=DIRECTION('',(0.,0.,1.));
#303=DIRECTION('',(0.,18.5,0.));
#304=DIRECTION('',(0.,0.,1.));
#305=DIRECTION('',(0.,18.5,0.));
#306=DIRECTION('',(0.,0.,1.));
#307=DIRECTION('',(0.,18.5,0.));
#308=DIRECTION('',(0.,0.,1.));
#309=DIRECTION('',(0.,0.,1.));
#310=DIRECTION('',(0.,13.9875,0.));
#311=DIRECTION('',(0.,0.,1.));
#312=DIRECTION('',(0.,13.9875,0.));
#313=CARTESIAN_POINT('',(0.,0.,0.));
#314=CARTESIAN_POINT('',(0.,0.,-0.700000000000001));
#315=CARTESIAN_POINT('',(-10.415,1.27546964131197E-15,-0.700000000000001));
#316=CARTESIAN_POINT('',(0.,0.,-4.5));
#317=CARTESIAN_POINT('',(10.415,0.,-4.5));
#318=CARTESIAN_POINT('',(0.,0.,-4.5));
#319=CARTESIAN_POINT('',(0.,0.,-4.5));
#320=CARTESIAN_POINT('',(10.215,0.,-4.5));
#321=CARTESIAN_POINT('',(0.,0.,-14.5));
#322=CARTESIAN_POINT('',(0.,0.,-14.5));
#323=CARTESIAN_POINT('',(8.5515,0.,-14.5));
#324=CARTESIAN_POINT('',(0.,0.,-14.5));
#325=CARTESIAN_POINT('',(10.215,0.,-14.5));
#326=CARTESIAN_POINT('',(0.,0.,0.));
#327=CARTESIAN_POINT('',(0.,0.,0.));
#328=CARTESIAN_POINT('',(11.115,1.36119491725228E-15,0.));
#329=CARTESIAN_POINT('',(0.,0.,0.));
#330=CARTESIAN_POINT('',(0.,11.2445,0.));
#331=CARTESIAN_POINT('',(0.,0.,0.));
#332=CARTESIAN_POINT('',(0.,13.9875,0.));
#333=CARTESIAN_POINT('',(0.,0.,-14.5));
#334=CARTESIAN_POINT('',(0.,0.,-15.));
#335=CARTESIAN_POINT('',(0.,8.5515,-15.));
#336=CARTESIAN_POINT('',(0.,10.52575,-15.));
#337=CARTESIAN_POINT('',(0.,0.,-15.));
#338=CARTESIAN_POINT('',(0.,12.5,-15.));
#339=CARTESIAN_POINT('',(0.,0.,-10.));
#340=CARTESIAN_POINT('',(0.,0.,-5.));
#341=CARTESIAN_POINT('',(0.,12.5,-5.));
#342=CARTESIAN_POINT('',(0.,15.5,-5.));
#343=CARTESIAN_POINT('',(0.,0.,-5.));
#344=CARTESIAN_POINT('',(0.,18.5,-5.));
#345=CARTESIAN_POINT('',(0.,0.,-3.));
#346=CARTESIAN_POINT('',(0.,0.,-1.));
#347=CARTESIAN_POINT('',(0.,18.5,-1.));
#348=CARTESIAN_POINT('',(0.,16.24375,-1.));
#349=CARTESIAN_POINT('',(0.,0.,-1.));
#350=CARTESIAN_POINT('',(0.,13.9875,-1.));
#351=CARTESIAN_POINT('',(0.,0.,-0.5));
#352=CYLINDRICAL_SURFACE('',#241,10.415);
#353=CYLINDRICAL_SURFACE('',#251,10.215);
#354=CYLINDRICAL_SURFACE('',#254,8.5515);
#355=CYLINDRICAL_SURFACE('',#258,12.5);
#356=CYLINDRICAL_SURFACE('',#262,18.5);
#357=CYLINDRICAL_SURFACE('',#266,13.9875);
#358=CLOSED_SHELL('',(#228,#229,#230,#231,#232,#233,#234,#235,#236,#237,
#238,#239,#240));
#359=MANIFOLD_SOLID_BREP('',#358);
#360=ADVANCED_BREP_SHAPE_REPRESENTATION('',(#359),#103);
ENDSEC;
END-ISO-10303-21;
