ISO-10303-21;
HEADER;
/* Generated by software containing ST-Developer
 * from STEP Tools, Inc. (www.steptools.com) 
 */

FILE_DESCRIPTION(
/* description */ ('Alibre Inc.'),
/* implementation_level */ '2;1');

FILE_NAME(
/* name */ 'export-C0E37233-F31F-4B7A-BAD9-F34CBB6288EA',
/* time_stamp */ '2025-03-29T10:55:54+08:00',
/* author */ (''),
/* organization */ (''),
/* preprocessor_version */ 'ST-DEVELOPER v17',
/* originating_system */ 'Alibre',
/* authorisation */ '');

FILE_SCHEMA (('CONFIG_CONTROL_DESIGN'));
ENDSEC;

DATA;
#10=MECHANICAL_CONTEXT('detailed design',#18,'mechanical');
#11=PRODUCT_RELATED_PRODUCT_CATEGORY('detail','',(#98));
#12=CC_DESIGN_SECURITY_CLASSIFICATION(#14,(#97));
#13=SECURITY_CLASSIFICATION_LEVEL('unclassified');
#14=SECURITY_CLASSIFICATION('name','Security for version',#13);
#15=SHAPE_DEFINITION_REPRESENTATION(#16,#359);
#16=PRODUCT_DEFINITION_SHAPE('','DefinitionDesc',#96);
#17=APPLICATION_PROTOCOL_DEFINITION('AP definition status',
'config_control_design',1994,#18);
#18=APPLICATION_CONTEXT(
'control the configuration of three dimensional design');
#19=DESIGN_CONTEXT('detailed design',#18,'design');
#20=PERSON_AND_ORGANIZATION_ROLE('creator');
#21=PERSON_AND_ORGANIZATION_ROLE('classification_officer');
#22=PERSON_AND_ORGANIZATION_ROLE('creator');
#23=PERSON_AND_ORGANIZATION_ROLE('design_supplier');
#24=PERSON_AND_ORGANIZATION_ROLE('design_owner');
#25=CC_DESIGN_PERSON_AND_ORGANIZATION_ASSIGNMENT(#57,#20,(#96));
#26=CC_DESIGN_PERSON_AND_ORGANIZATION_ASSIGNMENT(#60,#21,(#14));
#27=CC_DESIGN_PERSON_AND_ORGANIZATION_ASSIGNMENT(#61,#22,(#97));
#28=CC_DESIGN_PERSON_AND_ORGANIZATION_ASSIGNMENT(#62,#23,(#97));
#29=CC_DESIGN_PERSON_AND_ORGANIZATION_ASSIGNMENT(#63,#24,(#98));
#30=DATE_TIME_ROLE('creation_date');
#31=DATE_TIME_ROLE('classification_date');
#32=CC_DESIGN_DATE_AND_TIME_ASSIGNMENT(#86,#30,(#96));
#33=CC_DESIGN_DATE_AND_TIME_ASSIGNMENT(#89,#31,(#14));
#34=CC_DESIGN_APPROVAL(#93,(#96));
#35=CC_DESIGN_APPROVAL(#94,(#97));
#36=CC_DESIGN_APPROVAL(#95,(#14));
#37=APPROVAL_PERSON_ORGANIZATION(#56,#93,#64);
#38=APPROVAL_PERSON_ORGANIZATION(#58,#94,#65);
#39=APPROVAL_PERSON_ORGANIZATION(#59,#95,#66);
#40=ORGANIZATION('DEFINITION_APPROVEDBY_ORG_ID',
'DEFINITION_APPROVEDBY_ORG_NAME','DEFINITION_APPROVEDBY_ORG_DESCR');
#41=ORGANIZATION('DEF_CREATOR_ORG_ID','DEF_CREATOR_ORG_NAME',
'DEF_CREATOR_ORG_DESCR');
#42=ORGANIZATION('APPROVEDBY_ORG_ID','APPROVEDBY_ORG_NAME',
'APPROVEDBY_ORG_DESCR');
#43=ORGANIZATION('SECURITY_APPROVEDBY_ORG_ID',
'SECURITY_APPROVEDBY_ORG_NAME','SECURITY_APPROVEDBY_ORG_DESCR');
#44=ORGANIZATION('CLASSOFFICER_ORG_ID','CLASSOFFICER_ORG_NAME',
'CLASSOFFICER_ORG_DESCR');
#45=ORGANIZATION('CREATOR_ORG_ID','CREATOR_ORG_NAME',
'CREATOR_ORG_DESCR');
#46=ORGANIZATION('SUPPLIER_ORG_ID','SUPPLIER_ORG_NAME',
'SUPPLIER_ORG_DESCR');
#47=ORGANIZATION('OWNER_ORG_ID','OWNER_ORG_NAME','OWNER_ORG_DESCR');
#48=PERSON('DEFINITION_approverID','DEFINITION_APPROVEDBY_LASTNAME',
'DEFINITION_APPROVEDBY_FIRSTNAME',$,$,$);
#49=PERSON('DEF_createrID','DEF_CREATOR_LASTNAME',
'DEF_CREATOR_FIRSTNAME',$,$,$);
#50=PERSON('approverID','APPROVEDBY_LASTNAME','APPROVEDBY_FIRSTNAME',$,
$,$);
#51=PERSON('SECURITY_approverID','SECURITY_LASTNAME',
'SECURITY_APPROVEDBY_FIRSTNAME',$,$,$);
#52=PERSON('classifierID','CLASSOFFICER_LASTNAME',
'CLASSOFFICER_FIRSTNAME',$,$,$);
#53=PERSON('createrID','CREATOR_LASTNAME','CREATOR_FIRSTNAME',$,$,$);
#54=PERSON('supplierID','SUPPLIER_LASTNAME','SUPPLIER_FIRSTNAME',$,$,$);
#55=PERSON('ownerID','OWNER_LASTNAME','OWNER_FIRSTNAME',$,$,$);
#56=PERSON_AND_ORGANIZATION(#48,#40);
#57=PERSON_AND_ORGANIZATION(#49,#41);
#58=PERSON_AND_ORGANIZATION(#50,#42);
#59=PERSON_AND_ORGANIZATION(#51,#43);
#60=PERSON_AND_ORGANIZATION(#52,#44);
#61=PERSON_AND_ORGANIZATION(#53,#45);
#62=PERSON_AND_ORGANIZATION(#54,#46);
#63=PERSON_AND_ORGANIZATION(#55,#47);
#64=APPROVAL_ROLE('definition_approval');
#65=APPROVAL_ROLE('version_approval');
#66=APPROVAL_ROLE('security_approval');
#67=APPROVAL_DATE_TIME(#85,#93);
#68=APPROVAL_DATE_TIME(#87,#94);
#69=APPROVAL_DATE_TIME(#88,#95);
#70=COORDINATED_UNIVERSAL_TIME_OFFSET(8,0,.AHEAD.);
#71=COORDINATED_UNIVERSAL_TIME_OFFSET(8,0,.AHEAD.);
#72=COORDINATED_UNIVERSAL_TIME_OFFSET(8,0,.AHEAD.);
#73=COORDINATED_UNIVERSAL_TIME_OFFSET(8,0,.AHEAD.);
#74=COORDINATED_UNIVERSAL_TIME_OFFSET(8,0,.AHEAD.);
#75=LOCAL_TIME(17,13,57.,#70);
#76=LOCAL_TIME(17,13,57.,#71);
#77=LOCAL_TIME(17,13,57.,#72);
#78=LOCAL_TIME(17,13,57.,#73);
#79=LOCAL_TIME(17,13,57.,#74);
#80=CALENDAR_DATE(2025,27,3);
#81=CALENDAR_DATE(2025,27,3);
#82=CALENDAR_DATE(2025,27,3);
#83=CALENDAR_DATE(2025,27,3);
#84=CALENDAR_DATE(2025,27,3);
#85=DATE_AND_TIME(#80,#75);
#86=DATE_AND_TIME(#81,#76);
#87=DATE_AND_TIME(#82,#77);
#88=DATE_AND_TIME(#83,#78);
#89=DATE_AND_TIME(#84,#79);
#90=APPROVAL_STATUS('not_yet_approved');
#91=APPROVAL_STATUS('not_yet_approved');
#92=APPROVAL_STATUS('not_yet_approved');
#93=APPROVAL(#90,'defintion approval');
#94=APPROVAL(#91,'version approval');
#95=APPROVAL(#92,'security approval');
#96=PRODUCT_DEFINITION('DefinitionID','DefinitionDesc',#97,#19);
#97=PRODUCT_DEFINITION_FORMATION_WITH_SPECIFIED_SOURCE(
'PRODUCT_VERSION_ID','PRODUCT_VERSION_DESCR',#98,.NOT_KNOWN.);
#98=PRODUCT('','3600','',(#10));
#99=(
LENGTH_UNIT()
NAMED_UNIT(*)
SI_UNIT(.CENTI.,.METRE.)
);
#100=(
NAMED_UNIT(*)
PLANE_ANGLE_UNIT()
SI_UNIT($,.RADIAN.)
);
#101=(
NAMED_UNIT(*)
SI_UNIT($,.STERADIAN.)
SOLID_ANGLE_UNIT()
);
#102=UNCERTAINTY_MEASURE_WITH_UNIT(LENGTH_MEASURE(1.E-6),#99,
'DISTANCE_ACCURACY_VALUE',
'Maximum model space distance between geometric entities at asserted c
onnectivities');
#103=(
GEOMETRIC_REPRESENTATION_CONTEXT(3)
GLOBAL_UNCERTAINTY_ASSIGNED_CONTEXT((#102))
GLOBAL_UNIT_ASSIGNED_CONTEXT((#101,#100,#99))
REPRESENTATION_CONTEXT('ID1','3D')
);
#104=PLANE('',#251);
#105=PLANE('',#253);
#106=PLANE('',#257);
#107=PLANE('',#261);
#108=PLANE('',#265);
#109=PLANE('',#269);
#110=CYLINDRICAL_SURFACE('',#249,8.5015);
#111=CYLINDRICAL_SURFACE('',#255,9.2515);
#112=CYLINDRICAL_SURFACE('',#259,8.5515);
#113=CYLINDRICAL_SURFACE('',#263,12.5);
#114=CYLINDRICAL_SURFACE('',#267,18.5);
#115=CYLINDRICAL_SURFACE('',#271,13.9875);
#116=VERTEX_POINT('',#319);
#117=VERTEX_POINT('',#321);
#118=VERTEX_POINT('',#324);
#119=VERTEX_POINT('',#327);
#120=VERTEX_POINT('',#330);
#121=VERTEX_POINT('',#333);
#122=VERTEX_POINT('',#336);
#123=VERTEX_POINT('',#339);
#124=VERTEX_POINT('',#342);
#125=VERTEX_POINT('',#345);
#126=VERTEX_POINT('',#348);
#127=VERTEX_POINT('',#351);
#128=VERTEX_POINT('',#354);
#129=CIRCLE('',#247,9.0015);
#130=CIRCLE('',#248,8.5015);
#131=CIRCLE('',#250,8.5015);
#132=CIRCLE('',#252,13.9875);
#133=CIRCLE('',#254,9.2515);
#134=CIRCLE('',#256,9.2515);
#135=CIRCLE('',#258,8.5515);
#136=CIRCLE('',#260,8.5515);
#137=CIRCLE('',#262,12.5);
#138=CIRCLE('',#264,12.5);
#139=CIRCLE('',#266,18.5);
#140=CIRCLE('',#268,18.5);
#141=CIRCLE('',#270,13.9875);
#142=EDGE_CURVE('',#116,#116,#129,.T.);
#143=EDGE_CURVE('',#117,#117,#130,.T.);
#144=EDGE_CURVE('',#118,#118,#131,.T.);
#145=EDGE_CURVE('',#119,#119,#132,.T.);
#146=EDGE_CURVE('',#120,#120,#133,.T.);
#147=EDGE_CURVE('',#121,#121,#134,.T.);
#148=EDGE_CURVE('',#122,#122,#135,.T.);
#149=EDGE_CURVE('',#123,#123,#136,.T.);
#150=EDGE_CURVE('',#124,#124,#137,.T.);
#151=EDGE_CURVE('',#125,#125,#138,.T.);
#152=EDGE_CURVE('',#126,#126,#139,.T.);
#153=EDGE_CURVE('',#127,#127,#140,.T.);
#154=EDGE_CURVE('',#128,#128,#141,.T.);
#155=ORIENTED_EDGE('',*,*,#142,.T.);
#156=ORIENTED_EDGE('',*,*,#143,.T.);
#157=ORIENTED_EDGE('',*,*,#144,.F.);
#158=ORIENTED_EDGE('',*,*,#143,.F.);
#159=ORIENTED_EDGE('',*,*,#145,.T.);
#160=ORIENTED_EDGE('',*,*,#142,.F.);
#161=ORIENTED_EDGE('',*,*,#146,.F.);
#162=ORIENTED_EDGE('',*,*,#144,.T.);
#163=ORIENTED_EDGE('',*,*,#147,.F.);
#164=ORIENTED_EDGE('',*,*,#146,.T.);
#165=ORIENTED_EDGE('',*,*,#148,.F.);
#166=ORIENTED_EDGE('',*,*,#147,.T.);
#167=ORIENTED_EDGE('',*,*,#149,.F.);
#168=ORIENTED_EDGE('',*,*,#148,.T.);
#169=ORIENTED_EDGE('',*,*,#150,.F.);
#170=ORIENTED_EDGE('',*,*,#149,.T.);
#171=ORIENTED_EDGE('',*,*,#151,.F.);
#172=ORIENTED_EDGE('',*,*,#150,.T.);
#173=ORIENTED_EDGE('',*,*,#152,.F.);
#174=ORIENTED_EDGE('',*,*,#151,.T.);
#175=ORIENTED_EDGE('',*,*,#153,.F.);
#176=ORIENTED_EDGE('',*,*,#152,.T.);
#177=ORIENTED_EDGE('',*,*,#154,.F.);
#178=ORIENTED_EDGE('',*,*,#153,.T.);
#179=ORIENTED_EDGE('',*,*,#145,.F.);
#180=ORIENTED_EDGE('',*,*,#154,.T.);
#181=EDGE_LOOP('',(#155));
#182=EDGE_LOOP('',(#156));
#183=EDGE_LOOP('',(#157));
#184=EDGE_LOOP('',(#158));
#185=EDGE_LOOP('',(#159));
#186=EDGE_LOOP('',(#160));
#187=EDGE_LOOP('',(#161));
#188=EDGE_LOOP('',(#162));
#189=EDGE_LOOP('',(#163));
#190=EDGE_LOOP('',(#164));
#191=EDGE_LOOP('',(#165));
#192=EDGE_LOOP('',(#166));
#193=EDGE_LOOP('',(#167));
#194=EDGE_LOOP('',(#168));
#195=EDGE_LOOP('',(#169));
#196=EDGE_LOOP('',(#170));
#197=EDGE_LOOP('',(#171));
#198=EDGE_LOOP('',(#172));
#199=EDGE_LOOP('',(#173));
#200=EDGE_LOOP('',(#174));
#201=EDGE_LOOP('',(#175));
#202=EDGE_LOOP('',(#176));
#203=EDGE_LOOP('',(#177));
#204=EDGE_LOOP('',(#178));
#205=EDGE_LOOP('',(#179));
#206=EDGE_LOOP('',(#180));
#207=FACE_BOUND('',#181,.T.);
#208=FACE_BOUND('',#182,.T.);
#209=FACE_BOUND('',#183,.T.);
#210=FACE_BOUND('',#184,.T.);
#211=FACE_BOUND('',#185,.T.);
#212=FACE_BOUND('',#186,.T.);
#213=FACE_BOUND('',#187,.T.);
#214=FACE_BOUND('',#188,.T.);
#215=FACE_BOUND('',#189,.T.);
#216=FACE_BOUND('',#190,.T.);
#217=FACE_BOUND('',#191,.T.);
#218=FACE_BOUND('',#192,.T.);
#219=FACE_BOUND('',#193,.T.);
#220=FACE_BOUND('',#194,.T.);
#221=FACE_BOUND('',#195,.T.);
#222=FACE_BOUND('',#196,.T.);
#223=FACE_BOUND('',#197,.T.);
#224=FACE_BOUND('',#198,.T.);
#225=FACE_BOUND('',#199,.T.);
#226=FACE_BOUND('',#200,.T.);
#227=FACE_BOUND('',#201,.T.);
#228=FACE_BOUND('',#202,.T.);
#229=FACE_BOUND('',#203,.T.);
#230=FACE_BOUND('',#204,.T.);
#231=FACE_BOUND('',#205,.T.);
#232=FACE_BOUND('',#206,.T.);
#233=ADVANCED_FACE('',(#207,#208),#356,.T.);
#234=ADVANCED_FACE('',(#209,#210),#110,.F.);
#235=ADVANCED_FACE('',(#211,#212),#104,.T.);
#236=ADVANCED_FACE('',(#213,#214),#105,.T.);
#237=ADVANCED_FACE('',(#215,#216),#111,.F.);
#238=ADVANCED_FACE('',(#217,#218),#106,.T.);
#239=ADVANCED_FACE('',(#219,#220),#112,.F.);
#240=ADVANCED_FACE('',(#221,#222),#107,.T.);
#241=ADVANCED_FACE('',(#223,#224),#113,.T.);
#242=ADVANCED_FACE('',(#225,#226),#108,.T.);
#243=ADVANCED_FACE('',(#227,#228),#114,.T.);
#244=ADVANCED_FACE('',(#229,#230),#109,.T.);
#245=ADVANCED_FACE('',(#231,#232),#115,.T.);
#246=AXIS2_PLACEMENT_3D('',#317,#272,$);
#247=AXIS2_PLACEMENT_3D('',#318,#273,#274);
#248=AXIS2_PLACEMENT_3D('',#320,#275,#276);
#249=AXIS2_PLACEMENT_3D('',#322,#277,#278);
#250=AXIS2_PLACEMENT_3D('',#323,#279,#280);
#251=AXIS2_PLACEMENT_3D('',#325,#281,$);
#252=AXIS2_PLACEMENT_3D('',#326,#282,#283);
#253=AXIS2_PLACEMENT_3D('',#328,#284,$);
#254=AXIS2_PLACEMENT_3D('',#329,#285,#286);
#255=AXIS2_PLACEMENT_3D('',#331,#287,#288);
#256=AXIS2_PLACEMENT_3D('',#332,#289,#290);
#257=AXIS2_PLACEMENT_3D('',#334,#291,$);
#258=AXIS2_PLACEMENT_3D('',#335,#292,#293);
#259=AXIS2_PLACEMENT_3D('',#337,#294,#295);
#260=AXIS2_PLACEMENT_3D('',#338,#296,#297);
#261=AXIS2_PLACEMENT_3D('',#340,#298,$);
#262=AXIS2_PLACEMENT_3D('',#341,#299,#300);
#263=AXIS2_PLACEMENT_3D('',#343,#301,#302);
#264=AXIS2_PLACEMENT_3D('',#344,#303,#304);
#265=AXIS2_PLACEMENT_3D('',#346,#305,$);
#266=AXIS2_PLACEMENT_3D('',#347,#306,#307);
#267=AXIS2_PLACEMENT_3D('',#349,#308,#309);
#268=AXIS2_PLACEMENT_3D('',#350,#310,#311);
#269=AXIS2_PLACEMENT_3D('',#352,#312,$);
#270=AXIS2_PLACEMENT_3D('',#353,#313,#314);
#271=AXIS2_PLACEMENT_3D('',#355,#315,#316);
#272=DIRECTION('',(0.,0.,1.));
#273=DIRECTION('',(0.,0.,1.));
#274=DIRECTION('',(-1.10236581625249E-15,-9.0015,0.));
#275=DIRECTION('',(0.,0.,-1.));
#276=DIRECTION('',(-1.04113347629512E-15,-8.5015,0.));
#277=DIRECTION('',(0.,0.,1.));
#278=DIRECTION('',(0.,8.5015,0.));
#279=DIRECTION('',(0.,0.,1.));
#280=DIRECTION('',(0.,8.5015,0.));
#281=DIRECTION('',(0.,0.,1.));
#282=DIRECTION('',(0.,0.,1.));
#283=DIRECTION('',(0.,13.9875,0.));
#284=DIRECTION('',(0.,0.,-1.));
#285=DIRECTION('',(0.,0.,1.));
#286=DIRECTION('',(0.,9.2515,0.));
#287=DIRECTION('',(0.,0.,1.));
#288=DIRECTION('',(0.,9.2515,0.));
#289=DIRECTION('',(0.,0.,1.));
#290=DIRECTION('',(0.,9.2515,0.));
#291=DIRECTION('',(0.,0.,1.));
#292=DIRECTION('',(0.,0.,1.));
#293=DIRECTION('',(0.,8.5515,0.));
#294=DIRECTION('',(0.,0.,1.));
#295=DIRECTION('',(0.,8.5515,0.));
#296=DIRECTION('',(0.,0.,1.));
#297=DIRECTION('',(0.,8.5515,0.));
#298=DIRECTION('',(0.,0.,-1.));
#299=DIRECTION('',(0.,0.,1.));
#300=DIRECTION('',(0.,12.5,0.));
#301=DIRECTION('',(0.,0.,1.));
#302=DIRECTION('',(0.,12.5,0.));
#303=DIRECTION('',(0.,0.,1.));
#304=DIRECTION('',(0.,12.5,0.));
#305=DIRECTION('',(0.,0.,-1.));
#306=DIRECTION('',(0.,0.,1.));
#307=DIRECTION('',(0.,18.5,0.));
#308=DIRECTION('',(0.,0.,1.));
#309=DIRECTION('',(0.,18.5,0.));
#310=DIRECTION('',(0.,0.,1.));
#311=DIRECTION('',(0.,18.5,0.));
#312=DIRECTION('',(0.,0.,1.));
#313=DIRECTION('',(0.,0.,1.));
#314=DIRECTION('',(0.,13.9875,0.));
#315=DIRECTION('',(0.,0.,1.));
#316=DIRECTION('',(0.,13.9875,0.));
#317=CARTESIAN_POINT('',(0.,0.,-0.5));
#318=CARTESIAN_POINT('',(0.,0.,0.));
#319=CARTESIAN_POINT('',(0.,9.0015,0.));
#320=CARTESIAN_POINT('',(0.,0.,-0.5));
#321=CARTESIAN_POINT('',(2.08226695259024E-15,8.5015,-0.5));
#322=CARTESIAN_POINT('',(0.,0.,-6.45));
#323=CARTESIAN_POINT('',(0.,0.,-12.9));
#324=CARTESIAN_POINT('',(0.,8.5015,-12.9));
#325=CARTESIAN_POINT('',(0.,11.2445,0.));
#326=CARTESIAN_POINT('',(0.,0.,0.));
#327=CARTESIAN_POINT('',(0.,13.9875,0.));
#328=CARTESIAN_POINT('',(0.,8.8765,-12.9));
#329=CARTESIAN_POINT('',(0.,0.,-12.9));
#330=CARTESIAN_POINT('',(0.,9.2515,-12.9));
#331=CARTESIAN_POINT('',(0.,0.,-13.45));
#332=CARTESIAN_POINT('',(0.,0.,-14.));
#333=CARTESIAN_POINT('',(0.,9.2515,-14.));
#334=CARTESIAN_POINT('',(0.,8.9015,-14.));
#335=CARTESIAN_POINT('',(0.,0.,-14.));
#336=CARTESIAN_POINT('',(0.,8.5515,-14.));
#337=CARTESIAN_POINT('',(0.,0.,-14.5));
#338=CARTESIAN_POINT('',(0.,0.,-15.));
#339=CARTESIAN_POINT('',(0.,8.5515,-15.));
#340=CARTESIAN_POINT('',(0.,10.52575,-15.));
#341=CARTESIAN_POINT('',(0.,0.,-15.));
#342=CARTESIAN_POINT('',(0.,12.5,-15.));
#343=CARTESIAN_POINT('',(0.,0.,-10.));
#344=CARTESIAN_POINT('',(0.,0.,-5.));
#345=CARTESIAN_POINT('',(0.,12.5,-5.));
#346=CARTESIAN_POINT('',(0.,15.5,-5.));
#347=CARTESIAN_POINT('',(0.,0.,-5.));
#348=CARTESIAN_POINT('',(0.,18.5,-5.));
#349=CARTESIAN_POINT('',(0.,0.,-3.));
#350=CARTESIAN_POINT('',(0.,0.,-1.));
#351=CARTESIAN_POINT('',(0.,18.5,-1.));
#352=CARTESIAN_POINT('',(0.,16.24375,-1.));
#353=CARTESIAN_POINT('',(0.,0.,-1.));
#354=CARTESIAN_POINT('',(0.,13.9875,-1.));
#355=CARTESIAN_POINT('',(0.,0.,-0.5));
#356=TOROIDAL_SURFACE('',#246,9.0015,0.5);
#357=CLOSED_SHELL('',(#233,#234,#235,#236,#237,#238,#239,#240,#241,#242,
#243,#244,#245));
#358=MANIFOLD_SOLID_BREP('',#357);
#359=ADVANCED_BREP_SHAPE_REPRESENTATION('',(#358),#103);
ENDSEC;
END-ISO-10303-21;
