ISO-10303-21;
HEADER;
/* Generated by software containing ST-Developer
 * from STEP Tools, Inc. (www.steptools.com) 
 */

FILE_DESCRIPTION(
/* description */ ('Alibre Inc.'),
/* implementation_level */ '2;1');

FILE_NAME(
/* name */ 'export-42BD7FAA-7B61-43F4-8F46-7A4080273DCC',
/* time_stamp */ '2025-03-15T21:18:26+08:00',
/* author */ (''),
/* organization */ (''),
/* preprocessor_version */ 'ST-DEVELOPER v17',
/* originating_system */ 'Alibre',
/* authorisation */ '');

FILE_SCHEMA (('CONFIG_CONTROL_DESIGN'));
ENDSEC;

DATA;
#10=CONTEXT_DEPENDENT_SHAPE_REPRESENTATION(#13,#30);
#11=NEXT_ASSEMBLY_USAGE_OCCURRENCE('NAUO_ID9','NAUO_NAME9',$,#191,#190,
$);
#12=ITEM_DEFINED_TRANSFORMATION('ITD_NAME0',$,#417,#416);
#13=(
REPRESENTATION_RELATIONSHIP('Collet Block',$,#196,#197)
REPRESENTATION_RELATIONSHIP_WITH_TRANSFORMATION(#12)
SHAPE_REPRESENTATION_RELATIONSHIP()
);
#14=MECHANICAL_CONTEXT('detailed design',#32,'mechanical');
#15=PRODUCT_RELATED_PRODUCT_CATEGORY('detail','',(#194));
#16=PRODUCT_RELATED_PRODUCT_CATEGORY('detail','',(#195));
#17=CC_DESIGN_SECURITY_CLASSIFICATION(#23,(#192));
#18=CC_DESIGN_SECURITY_CLASSIFICATION(#24,(#193));
#19=CC_DESIGN_SECURITY_CLASSIFICATION(#25,(#11));
#20=SECURITY_CLASSIFICATION_LEVEL('unclassified');
#21=SECURITY_CLASSIFICATION_LEVEL('unclassified');
#22=SECURITY_CLASSIFICATION_LEVEL('unclassified');
#23=SECURITY_CLASSIFICATION('name','Security for version',#20);
#24=SECURITY_CLASSIFICATION('name','Security for version',#21);
#25=SECURITY_CLASSIFICATION('name','Security for version',#22);
#26=SHAPE_DEFINITION_REPRESENTATION(#28,#196);
#27=SHAPE_DEFINITION_REPRESENTATION(#29,#197);
#28=PRODUCT_DEFINITION_SHAPE('','DefinitionDesc',#190);
#29=PRODUCT_DEFINITION_SHAPE('','DefinitionDesc',#191);
#30=PRODUCT_DEFINITION_SHAPE('NAME_10',$,#11);
#31=APPLICATION_PROTOCOL_DEFINITION('AP definition status',
'config_control_design',1994,#32);
#32=APPLICATION_CONTEXT(
'control the configuration of three dimensional design');
#33=DESIGN_CONTEXT('detailed design',#32,'design');
#34=PERSON_AND_ORGANIZATION_ROLE('creator');
#35=PERSON_AND_ORGANIZATION_ROLE('classification_officer');
#36=PERSON_AND_ORGANIZATION_ROLE('creator');
#37=PERSON_AND_ORGANIZATION_ROLE('design_supplier');
#38=PERSON_AND_ORGANIZATION_ROLE('design_owner');
#39=PERSON_AND_ORGANIZATION_ROLE('creator');
#40=PERSON_AND_ORGANIZATION_ROLE('classification_officer');
#41=PERSON_AND_ORGANIZATION_ROLE('creator');
#42=PERSON_AND_ORGANIZATION_ROLE('design_supplier');
#43=PERSON_AND_ORGANIZATION_ROLE('design_owner');
#44=PERSON_AND_ORGANIZATION_ROLE('classification_officer');
#45=CC_DESIGN_PERSON_AND_ORGANIZATION_ASSIGNMENT(#97,#34,(#190));
#46=CC_DESIGN_PERSON_AND_ORGANIZATION_ASSIGNMENT(#100,#35,(#23));
#47=CC_DESIGN_PERSON_AND_ORGANIZATION_ASSIGNMENT(#101,#36,(#192));
#48=CC_DESIGN_PERSON_AND_ORGANIZATION_ASSIGNMENT(#102,#37,(#192));
#49=CC_DESIGN_PERSON_AND_ORGANIZATION_ASSIGNMENT(#103,#38,(#194));
#50=CC_DESIGN_PERSON_AND_ORGANIZATION_ASSIGNMENT(#105,#39,(#191));
#51=CC_DESIGN_PERSON_AND_ORGANIZATION_ASSIGNMENT(#108,#40,(#24));
#52=CC_DESIGN_PERSON_AND_ORGANIZATION_ASSIGNMENT(#109,#41,(#193));
#53=CC_DESIGN_PERSON_AND_ORGANIZATION_ASSIGNMENT(#110,#42,(#193));
#54=CC_DESIGN_PERSON_AND_ORGANIZATION_ASSIGNMENT(#111,#43,(#195));
#55=CC_DESIGN_PERSON_AND_ORGANIZATION_ASSIGNMENT(#113,#44,(#25));
#56=DATE_TIME_ROLE('creation_date');
#57=DATE_TIME_ROLE('classification_date');
#58=DATE_TIME_ROLE('creation_date');
#59=DATE_TIME_ROLE('classification_date');
#60=DATE_TIME_ROLE('classification_date');
#61=CC_DESIGN_DATE_AND_TIME_ASSIGNMENT(#165,#56,(#190));
#62=CC_DESIGN_DATE_AND_TIME_ASSIGNMENT(#168,#57,(#23));
#63=CC_DESIGN_DATE_AND_TIME_ASSIGNMENT(#170,#58,(#191));
#64=CC_DESIGN_DATE_AND_TIME_ASSIGNMENT(#173,#59,(#24));
#65=CC_DESIGN_DATE_AND_TIME_ASSIGNMENT(#175,#60,(#25));
#66=CC_DESIGN_APPROVAL(#183,(#190));
#67=CC_DESIGN_APPROVAL(#184,(#192));
#68=CC_DESIGN_APPROVAL(#185,(#23));
#69=CC_DESIGN_APPROVAL(#186,(#191));
#70=CC_DESIGN_APPROVAL(#187,(#193));
#71=CC_DESIGN_APPROVAL(#188,(#24));
#72=CC_DESIGN_APPROVAL(#189,(#25));
#73=APPROVAL_PERSON_ORGANIZATION(#96,#183,#114);
#74=APPROVAL_PERSON_ORGANIZATION(#98,#184,#115);
#75=APPROVAL_PERSON_ORGANIZATION(#99,#185,#116);
#76=APPROVAL_PERSON_ORGANIZATION(#104,#186,#117);
#77=APPROVAL_PERSON_ORGANIZATION(#106,#187,#118);
#78=APPROVAL_PERSON_ORGANIZATION(#107,#188,#119);
#79=APPROVAL_PERSON_ORGANIZATION(#112,#189,#120);
#80=ORGANIZATION('DEFINITION_APPROVEDBY_ORG_ID',
'DEFINITION_APPROVEDBY_ORG_NAME','DEFINITION_APPROVEDBY_ORG_DESCR');
#81=ORGANIZATION('DEF_CREATOR_ORG_ID','DEF_CREATOR_ORG_NAME',
'DEF_CREATOR_ORG_DESCR');
#82=ORGANIZATION('APPROVEDBY_ORG_ID','APPROVEDBY_ORG_NAME',
'APPROVEDBY_ORG_DESCR');
#83=ORGANIZATION('SECURITY_APPROVEDBY_ORG_ID',
'SECURITY_APPROVEDBY_ORG_NAME','SECURITY_APPROVEDBY_ORG_DESCR');
#84=ORGANIZATION('CLASSOFFICER_ORG_ID','CLASSOFFICER_ORG_NAME',
'CLASSOFFICER_ORG_DESCR');
#85=ORGANIZATION('CREATOR_ORG_ID','CREATOR_ORG_NAME',
'CREATOR_ORG_DESCR');
#86=ORGANIZATION('SUPPLIER_ORG_ID','SUPPLIER_ORG_NAME',
'SUPPLIER_ORG_DESCR');
#87=ORGANIZATION('OWNER_ORG_ID','OWNER_ORG_NAME','OWNER_ORG_DESCR');
#88=PERSON('DEFINITION_approverID','DEFINITION_APPROVEDBY_LASTNAME',
'DEFINITION_APPROVEDBY_FIRSTNAME',$,$,$);
#89=PERSON('DEF_createrID','DEF_CREATOR_LASTNAME',
'DEF_CREATOR_FIRSTNAME',$,$,$);
#90=PERSON('approverID','APPROVEDBY_LASTNAME','APPROVEDBY_FIRSTNAME',$,
$,$);
#91=PERSON('SECURITY_approverID','SECURITY_LASTNAME',
'SECURITY_APPROVEDBY_FIRSTNAME',$,$,$);
#92=PERSON('classifierID','CLASSOFFICER_LASTNAME',
'CLASSOFFICER_FIRSTNAME',$,$,$);
#93=PERSON('createrID','CREATOR_LASTNAME','CREATOR_FIRSTNAME',$,$,$);
#94=PERSON('supplierID','SUPPLIER_LASTNAME','SUPPLIER_FIRSTNAME',$,$,$);
#95=PERSON('ownerID','OWNER_LASTNAME','OWNER_FIRSTNAME',$,$,$);
#96=PERSON_AND_ORGANIZATION(#88,#80);
#97=PERSON_AND_ORGANIZATION(#89,#81);
#98=PERSON_AND_ORGANIZATION(#90,#82);
#99=PERSON_AND_ORGANIZATION(#91,#83);
#100=PERSON_AND_ORGANIZATION(#92,#84);
#101=PERSON_AND_ORGANIZATION(#93,#85);
#102=PERSON_AND_ORGANIZATION(#94,#86);
#103=PERSON_AND_ORGANIZATION(#95,#87);
#104=PERSON_AND_ORGANIZATION(#88,#80);
#105=PERSON_AND_ORGANIZATION(#89,#81);
#106=PERSON_AND_ORGANIZATION(#90,#82);
#107=PERSON_AND_ORGANIZATION(#91,#83);
#108=PERSON_AND_ORGANIZATION(#92,#84);
#109=PERSON_AND_ORGANIZATION(#93,#85);
#110=PERSON_AND_ORGANIZATION(#94,#86);
#111=PERSON_AND_ORGANIZATION(#95,#87);
#112=PERSON_AND_ORGANIZATION(#91,#83);
#113=PERSON_AND_ORGANIZATION(#92,#84);
#114=APPROVAL_ROLE('definition_approval');
#115=APPROVAL_ROLE('version_approval');
#116=APPROVAL_ROLE('security_approval');
#117=APPROVAL_ROLE('definition_approval');
#118=APPROVAL_ROLE('version_approval');
#119=APPROVAL_ROLE('security_approval');
#120=APPROVAL_ROLE('security_approval');
#121=APPROVAL_DATE_TIME(#164,#183);
#122=APPROVAL_DATE_TIME(#166,#184);
#123=APPROVAL_DATE_TIME(#167,#185);
#124=APPROVAL_DATE_TIME(#169,#186);
#125=APPROVAL_DATE_TIME(#171,#187);
#126=APPROVAL_DATE_TIME(#172,#188);
#127=APPROVAL_DATE_TIME(#174,#189);
#128=COORDINATED_UNIVERSAL_TIME_OFFSET(8,0,.AHEAD.);
#129=COORDINATED_UNIVERSAL_TIME_OFFSET(8,0,.AHEAD.);
#130=COORDINATED_UNIVERSAL_TIME_OFFSET(8,0,.AHEAD.);
#131=COORDINATED_UNIVERSAL_TIME_OFFSET(8,0,.AHEAD.);
#132=COORDINATED_UNIVERSAL_TIME_OFFSET(8,0,.AHEAD.);
#133=COORDINATED_UNIVERSAL_TIME_OFFSET(8,0,.AHEAD.);
#134=COORDINATED_UNIVERSAL_TIME_OFFSET(8,0,.AHEAD.);
#135=COORDINATED_UNIVERSAL_TIME_OFFSET(8,0,.AHEAD.);
#136=COORDINATED_UNIVERSAL_TIME_OFFSET(8,0,.AHEAD.);
#137=COORDINATED_UNIVERSAL_TIME_OFFSET(8,0,.AHEAD.);
#138=COORDINATED_UNIVERSAL_TIME_OFFSET(8,0,.AHEAD.);
#139=COORDINATED_UNIVERSAL_TIME_OFFSET(8,0,.AHEAD.);
#140=LOCAL_TIME(21,5,52.,#128);
#141=LOCAL_TIME(21,5,52.,#129);
#142=LOCAL_TIME(21,5,52.,#130);
#143=LOCAL_TIME(21,5,52.,#131);
#144=LOCAL_TIME(21,5,52.,#132);
#145=LOCAL_TIME(21,18,26.,#133);
#146=LOCAL_TIME(21,18,26.,#134);
#147=LOCAL_TIME(21,18,26.,#135);
#148=LOCAL_TIME(21,18,26.,#136);
#149=LOCAL_TIME(21,18,26.,#137);
#150=LOCAL_TIME(21,18,26.,#138);
#151=LOCAL_TIME(21,18,26.,#139);
#152=CALENDAR_DATE(2025,15,3);
#153=CALENDAR_DATE(2025,15,3);
#154=CALENDAR_DATE(2025,15,3);
#155=CALENDAR_DATE(2025,15,3);
#156=CALENDAR_DATE(2025,15,3);
#157=CALENDAR_DATE(2025,15,3);
#158=CALENDAR_DATE(2025,15,3);
#159=CALENDAR_DATE(2025,15,3);
#160=CALENDAR_DATE(2025,15,3);
#161=CALENDAR_DATE(2025,15,3);
#162=CALENDAR_DATE(2025,15,3);
#163=CALENDAR_DATE(2025,15,3);
#164=DATE_AND_TIME(#152,#140);
#165=DATE_AND_TIME(#153,#141);
#166=DATE_AND_TIME(#154,#142);
#167=DATE_AND_TIME(#155,#143);
#168=DATE_AND_TIME(#156,#144);
#169=DATE_AND_TIME(#157,#145);
#170=DATE_AND_TIME(#158,#146);
#171=DATE_AND_TIME(#159,#147);
#172=DATE_AND_TIME(#160,#148);
#173=DATE_AND_TIME(#161,#149);
#174=DATE_AND_TIME(#162,#150);
#175=DATE_AND_TIME(#163,#151);
#176=APPROVAL_STATUS('not_yet_approved');
#177=APPROVAL_STATUS('not_yet_approved');
#178=APPROVAL_STATUS('not_yet_approved');
#179=APPROVAL_STATUS('not_yet_approved');
#180=APPROVAL_STATUS('not_yet_approved');
#181=APPROVAL_STATUS('not_yet_approved');
#182=APPROVAL_STATUS('not_yet_approved');
#183=APPROVAL(#176,'defintion approval');
#184=APPROVAL(#177,'version approval');
#185=APPROVAL(#178,'security approval');
#186=APPROVAL(#179,'defintion approval');
#187=APPROVAL(#180,'version approval');
#188=APPROVAL(#181,'security approval');
#189=APPROVAL(#182,'security approval');
#190=PRODUCT_DEFINITION('Collet Block','DefinitionDesc',#192,#33);
#191=PRODUCT_DEFINITION('DefinitionID','DefinitionDesc',#193,#33);
#192=PRODUCT_DEFINITION_FORMATION_WITH_SPECIFIED_SOURCE(
'PRODUCT_VERSION_ID','PRODUCT_VERSION_DESCR',#194,.NOT_KNOWN.);
#193=PRODUCT_DEFINITION_FORMATION_WITH_SPECIFIED_SOURCE(
'PRODUCT_VERSION_ID','PRODUCT_VERSION_DESCR',#195,.NOT_KNOWN.);
#194=PRODUCT('','Collet Block','',(#14));
#195=PRODUCT('','New Assembly (1)','productDesc',(#14));
#196=SHAPE_REPRESENTATION('Collet Block',(#417),#207);
#197=SHAPE_REPRESENTATION('NAME_0',(#416),#208);
#198=SHAPE_REPRESENTATION_RELATIONSHIP('NAME_0',$,#540,#196);
#199=(
LENGTH_UNIT()
NAMED_UNIT(*)
SI_UNIT(.CENTI.,.METRE.)
);
#200=(
LENGTH_UNIT()
NAMED_UNIT(*)
SI_UNIT(.CENTI.,.METRE.)
);
#201=(
NAMED_UNIT(*)
PLANE_ANGLE_UNIT()
SI_UNIT($,.RADIAN.)
);
#202=(
NAMED_UNIT(*)
PLANE_ANGLE_UNIT()
SI_UNIT($,.RADIAN.)
);
#203=(
NAMED_UNIT(*)
SI_UNIT($,.STERADIAN.)
SOLID_ANGLE_UNIT()
);
#204=(
NAMED_UNIT(*)
SI_UNIT($,.STERADIAN.)
SOLID_ANGLE_UNIT()
);
#205=UNCERTAINTY_MEASURE_WITH_UNIT(LENGTH_MEASURE(1.E-6),#199,
'DISTANCE_ACCURACY_VALUE',
'Maximum model space distance between geometric entities at asserted c
onnectivities');
#206=UNCERTAINTY_MEASURE_WITH_UNIT(LENGTH_MEASURE(1.E-6),#200,
'DISTANCE_ACCURACY_VALUE',
'Maximum model space distance between geometric entities at asserted c
onnectivities');
#207=(
GEOMETRIC_REPRESENTATION_CONTEXT(3)
GLOBAL_UNCERTAINTY_ASSIGNED_CONTEXT((#205))
GLOBAL_UNIT_ASSIGNED_CONTEXT((#203,#201,#199))
REPRESENTATION_CONTEXT('ID1','3D')
);
#208=(
GEOMETRIC_REPRESENTATION_CONTEXT(3)
GLOBAL_UNCERTAINTY_ASSIGNED_CONTEXT((#206))
GLOBAL_UNIT_ASSIGNED_CONTEXT((#204,#202,#200))
REPRESENTATION_CONTEXT('ID1','3D')
);
#209=VECTOR('',#429,1.);
#210=VECTOR('',#432,1.);
#211=VECTOR('',#434,1.);
#212=VECTOR('',#435,1.);
#213=VECTOR('',#436,1.);
#214=VECTOR('',#441,1.);
#215=VECTOR('',#445,1.);
#216=VECTOR('',#446,1.);
#217=VECTOR('',#447,1.);
#218=VECTOR('',#452,1.);
#219=VECTOR('',#456,1.);
#220=VECTOR('',#457,1.);
#221=VECTOR('',#458,1.);
#222=VECTOR('',#463,1.);
#223=VECTOR('',#467,1.);
#224=VECTOR('',#468,1.);
#225=LINE('',#485,#209);
#226=LINE('',#489,#210);
#227=LINE('',#491,#211);
#228=LINE('',#493,#212);
#229=LINE('',#495,#213);
#230=LINE('',#499,#214);
#231=LINE('',#503,#215);
#232=LINE('',#505,#216);
#233=LINE('',#507,#217);
#234=LINE('',#511,#218);
#235=LINE('',#515,#219);
#236=LINE('',#517,#220);
#237=LINE('',#519,#221);
#238=LINE('',#523,#222);
#239=LINE('',#527,#223);
#240=LINE('',#528,#224);
#241=PLANE('',#397);
#242=PLANE('',#401);
#243=PLANE('',#405);
#244=PLANE('',#409);
#245=PLANE('',#413);
#246=PLANE('',#414);
#247=PLANE('',#415);
#248=VERTEX_POINT('',#477);
#249=VERTEX_POINT('',#479);
#250=VERTEX_POINT('',#483);
#251=VERTEX_POINT('',#484);
#252=VERTEX_POINT('',#486);
#253=VERTEX_POINT('',#488);
#254=VERTEX_POINT('',#492);
#255=VERTEX_POINT('',#494);
#256=VERTEX_POINT('',#498);
#257=VERTEX_POINT('',#500);
#258=VERTEX_POINT('',#504);
#259=VERTEX_POINT('',#506);
#260=VERTEX_POINT('',#510);
#261=VERTEX_POINT('',#512);
#262=VERTEX_POINT('',#516);
#263=VERTEX_POINT('',#518);
#264=VERTEX_POINT('',#522);
#265=VERTEX_POINT('',#524);
#266=CIRCLE('',#395,2.4);
#267=CIRCLE('',#396,2.4);
#268=CIRCLE('',#399,0.2);
#269=CIRCLE('',#400,0.2);
#270=CIRCLE('',#403,0.2);
#271=CIRCLE('',#404,0.2);
#272=CIRCLE('',#407,0.200000000000001);
#273=CIRCLE('',#408,0.200000000000001);
#274=CIRCLE('',#411,0.2);
#275=CIRCLE('',#412,0.2);
#276=EDGE_CURVE('',#248,#248,#266,.T.);
#277=EDGE_CURVE('',#249,#249,#267,.T.);
#278=EDGE_CURVE('',#250,#251,#268,.T.);
#279=EDGE_CURVE('',#252,#251,#225,.T.);
#280=EDGE_CURVE('',#252,#253,#269,.T.);
#281=EDGE_CURVE('',#253,#250,#226,.T.);
#282=EDGE_CURVE('',#251,#254,#227,.T.);
#283=EDGE_CURVE('',#255,#254,#228,.T.);
#284=EDGE_CURVE('',#255,#252,#229,.T.);
#285=EDGE_CURVE('',#254,#256,#270,.T.);
#286=EDGE_CURVE('',#257,#256,#230,.T.);
#287=EDGE_CURVE('',#257,#255,#271,.T.);
#288=EDGE_CURVE('',#256,#258,#231,.T.);
#289=EDGE_CURVE('',#259,#258,#232,.T.);
#290=EDGE_CURVE('',#259,#257,#233,.T.);
#291=EDGE_CURVE('',#258,#260,#272,.T.);
#292=EDGE_CURVE('',#261,#260,#234,.T.);
#293=EDGE_CURVE('',#261,#259,#273,.T.);
#294=EDGE_CURVE('',#260,#262,#235,.T.);
#295=EDGE_CURVE('',#263,#262,#236,.T.);
#296=EDGE_CURVE('',#263,#261,#237,.T.);
#297=EDGE_CURVE('',#262,#264,#274,.T.);
#298=EDGE_CURVE('',#265,#264,#238,.T.);
#299=EDGE_CURVE('',#265,#263,#275,.T.);
#300=EDGE_CURVE('',#264,#250,#239,.T.);
#301=EDGE_CURVE('',#253,#265,#240,.T.);
#302=ORIENTED_EDGE('',*,*,#276,.T.);
#303=ORIENTED_EDGE('',*,*,#277,.F.);
#304=ORIENTED_EDGE('',*,*,#276,.F.);
#305=ORIENTED_EDGE('',*,*,#278,.T.);
#306=ORIENTED_EDGE('',*,*,#279,.F.);
#307=ORIENTED_EDGE('',*,*,#280,.T.);
#308=ORIENTED_EDGE('',*,*,#281,.T.);
#309=ORIENTED_EDGE('',*,*,#282,.T.);
#310=ORIENTED_EDGE('',*,*,#283,.F.);
#311=ORIENTED_EDGE('',*,*,#284,.T.);
#312=ORIENTED_EDGE('',*,*,#279,.T.);
#313=ORIENTED_EDGE('',*,*,#285,.T.);
#314=ORIENTED_EDGE('',*,*,#286,.F.);
#315=ORIENTED_EDGE('',*,*,#287,.T.);
#316=ORIENTED_EDGE('',*,*,#283,.T.);
#317=ORIENTED_EDGE('',*,*,#288,.T.);
#318=ORIENTED_EDGE('',*,*,#289,.F.);
#319=ORIENTED_EDGE('',*,*,#290,.T.);
#320=ORIENTED_EDGE('',*,*,#286,.T.);
#321=ORIENTED_EDGE('',*,*,#291,.T.);
#322=ORIENTED_EDGE('',*,*,#292,.F.);
#323=ORIENTED_EDGE('',*,*,#293,.T.);
#324=ORIENTED_EDGE('',*,*,#289,.T.);
#325=ORIENTED_EDGE('',*,*,#294,.T.);
#326=ORIENTED_EDGE('',*,*,#295,.F.);
#327=ORIENTED_EDGE('',*,*,#296,.T.);
#328=ORIENTED_EDGE('',*,*,#292,.T.);
#329=ORIENTED_EDGE('',*,*,#297,.T.);
#330=ORIENTED_EDGE('',*,*,#298,.F.);
#331=ORIENTED_EDGE('',*,*,#299,.T.);
#332=ORIENTED_EDGE('',*,*,#295,.T.);
#333=ORIENTED_EDGE('',*,*,#300,.T.);
#334=ORIENTED_EDGE('',*,*,#281,.F.);
#335=ORIENTED_EDGE('',*,*,#301,.T.);
#336=ORIENTED_EDGE('',*,*,#298,.T.);
#337=ORIENTED_EDGE('',*,*,#277,.T.);
#338=ORIENTED_EDGE('',*,*,#278,.F.);
#339=ORIENTED_EDGE('',*,*,#300,.F.);
#340=ORIENTED_EDGE('',*,*,#297,.F.);
#341=ORIENTED_EDGE('',*,*,#294,.F.);
#342=ORIENTED_EDGE('',*,*,#291,.F.);
#343=ORIENTED_EDGE('',*,*,#288,.F.);
#344=ORIENTED_EDGE('',*,*,#285,.F.);
#345=ORIENTED_EDGE('',*,*,#282,.F.);
#346=ORIENTED_EDGE('',*,*,#301,.F.);
#347=ORIENTED_EDGE('',*,*,#280,.F.);
#348=ORIENTED_EDGE('',*,*,#284,.F.);
#349=ORIENTED_EDGE('',*,*,#287,.F.);
#350=ORIENTED_EDGE('',*,*,#290,.F.);
#351=ORIENTED_EDGE('',*,*,#293,.F.);
#352=ORIENTED_EDGE('',*,*,#296,.F.);
#353=ORIENTED_EDGE('',*,*,#299,.F.);
#354=EDGE_LOOP('',(#302));
#355=EDGE_LOOP('',(#303));
#356=EDGE_LOOP('',(#304));
#357=EDGE_LOOP('',(#305,#306,#307,#308));
#358=EDGE_LOOP('',(#309,#310,#311,#312));
#359=EDGE_LOOP('',(#313,#314,#315,#316));
#360=EDGE_LOOP('',(#317,#318,#319,#320));
#361=EDGE_LOOP('',(#321,#322,#323,#324));
#362=EDGE_LOOP('',(#325,#326,#327,#328));
#363=EDGE_LOOP('',(#329,#330,#331,#332));
#364=EDGE_LOOP('',(#333,#334,#335,#336));
#365=EDGE_LOOP('',(#337));
#366=EDGE_LOOP('',(#338,#339,#340,#341,#342,#343,#344,#345));
#367=EDGE_LOOP('',(#346,#347,#348,#349,#350,#351,#352,#353));
#368=FACE_BOUND('',#354,.T.);
#369=FACE_BOUND('',#355,.T.);
#370=FACE_BOUND('',#356,.T.);
#371=FACE_BOUND('',#357,.T.);
#372=FACE_BOUND('',#358,.T.);
#373=FACE_BOUND('',#359,.T.);
#374=FACE_BOUND('',#360,.T.);
#375=FACE_BOUND('',#361,.T.);
#376=FACE_BOUND('',#362,.T.);
#377=FACE_BOUND('',#363,.T.);
#378=FACE_BOUND('',#364,.T.);
#379=FACE_BOUND('',#365,.T.);
#380=FACE_BOUND('',#366,.T.);
#381=FACE_BOUND('',#367,.T.);
#382=ADVANCED_FACE('',(#368,#369),#533,.T.);
#383=ADVANCED_FACE('',(#370),#241,.T.);
#384=ADVANCED_FACE('',(#371),#534,.T.);
#385=ADVANCED_FACE('',(#372),#242,.T.);
#386=ADVANCED_FACE('',(#373),#535,.T.);
#387=ADVANCED_FACE('',(#374),#243,.T.);
#388=ADVANCED_FACE('',(#375),#536,.T.);
#389=ADVANCED_FACE('',(#376),#244,.T.);
#390=ADVANCED_FACE('',(#377),#537,.T.);
#391=ADVANCED_FACE('',(#378),#245,.T.);
#392=ADVANCED_FACE('',(#379,#380),#246,.T.);
#393=ADVANCED_FACE('',(#381),#247,.F.);
#394=AXIS2_PLACEMENT_3D('',#475,#418,#419);
#395=AXIS2_PLACEMENT_3D('',#476,#420,#421);
#396=AXIS2_PLACEMENT_3D('',#478,#422,#423);
#397=AXIS2_PLACEMENT_3D('',#480,#424,$);
#398=AXIS2_PLACEMENT_3D('',#481,#425,#426);
#399=AXIS2_PLACEMENT_3D('',#482,#427,#428);
#400=AXIS2_PLACEMENT_3D('',#487,#430,#431);
#401=AXIS2_PLACEMENT_3D('',#490,#433,$);
#402=AXIS2_PLACEMENT_3D('',#496,#437,#438);
#403=AXIS2_PLACEMENT_3D('',#497,#439,#440);
#404=AXIS2_PLACEMENT_3D('',#501,#442,#443);
#405=AXIS2_PLACEMENT_3D('',#502,#444,$);
#406=AXIS2_PLACEMENT_3D('',#508,#448,#449);
#407=AXIS2_PLACEMENT_3D('',#509,#450,#451);
#408=AXIS2_PLACEMENT_3D('',#513,#453,#454);
#409=AXIS2_PLACEMENT_3D('',#514,#455,$);
#410=AXIS2_PLACEMENT_3D('',#520,#459,#460);
#411=AXIS2_PLACEMENT_3D('',#521,#461,#462);
#412=AXIS2_PLACEMENT_3D('',#525,#464,#465);
#413=AXIS2_PLACEMENT_3D('',#526,#466,$);
#414=AXIS2_PLACEMENT_3D('',#529,#469,$);
#415=AXIS2_PLACEMENT_3D('',#530,#470,$);
#416=AXIS2_PLACEMENT_3D('AXIS_PLACEMENT_1',#531,#471,#472);
#417=AXIS2_PLACEMENT_3D('AXIS_PLACEMENT_5',#532,#473,#474);
#418=DIRECTION('',(0.,1.,0.));
#419=DIRECTION('',(2.4,0.,0.));
#420=DIRECTION('',(0.,-1.,0.));
#421=DIRECTION('',(2.4,0.,0.));
#422=DIRECTION('',(0.,-1.,0.));
#423=DIRECTION('',(2.4,0.,0.));
#424=DIRECTION('',(0.,1.,0.));
#425=DIRECTION('',(0.,1.,0.));
#426=DIRECTION('',(0.2,0.,0.));
#427=DIRECTION('',(0.,-1.,0.));
#428=DIRECTION('',(0.2,0.,0.));
#429=DIRECTION('',(0.,1.,0.));
#430=DIRECTION('',(0.,1.,0.));
#431=DIRECTION('',(0.2,0.,0.));
#432=DIRECTION('',(0.,1.,0.));
#433=DIRECTION('',(-6.25477760352201E-17,0.,-1.));
#434=DIRECTION('',(1.,0.,-6.25477760352201E-17));
#435=DIRECTION('',(0.,1.,0.));
#436=DIRECTION('',(-1.,0.,6.25477760352201E-17));
#437=DIRECTION('',(0.,1.,0.));
#438=DIRECTION('',(0.2,0.,0.));
#439=DIRECTION('',(0.,-1.,0.));
#440=DIRECTION('',(0.2,0.,0.));
#441=DIRECTION('',(0.,1.,0.));
#442=DIRECTION('',(0.,1.,0.));
#443=DIRECTION('',(0.2,0.,0.));
#444=DIRECTION('',(1.,0.,0.));
#445=DIRECTION('',(0.,0.,1.));
#446=DIRECTION('',(0.,1.,0.));
#447=DIRECTION('',(0.,0.,-1.));
#448=DIRECTION('',(0.,1.,0.));
#449=DIRECTION('',(0.200000000000001,0.,0.));
#450=DIRECTION('',(0.,-1.,0.));
#451=DIRECTION('',(0.200000000000001,0.,0.));
#452=DIRECTION('',(0.,1.,0.));
#453=DIRECTION('',(0.,1.,0.));
#454=DIRECTION('',(0.200000000000001,0.,0.));
#455=DIRECTION('',(-1.2509555207044E-16,0.,1.));
#456=DIRECTION('',(-1.,0.,-1.2509555207044E-16));
#457=DIRECTION('',(0.,1.,0.));
#458=DIRECTION('',(1.,0.,1.2509555207044E-16));
#459=DIRECTION('',(0.,1.,0.));
#460=DIRECTION('',(0.2,0.,0.));
#461=DIRECTION('',(0.,-1.,0.));
#462=DIRECTION('',(0.2,0.,0.));
#463=DIRECTION('',(0.,1.,0.));
#464=DIRECTION('',(0.,1.,0.));
#465=DIRECTION('',(0.2,0.,0.));
#466=DIRECTION('',(-1.,0.,0.));
#467=DIRECTION('',(0.,0.,-1.));
#468=DIRECTION('',(0.,0.,1.));
#469=DIRECTION('',(0.,1.,0.));
#470=DIRECTION('',(0.,1.,0.));
#471=DIRECTION('DIRECTION2',(0.,-1.,6.12303176911189E-17));
#472=DIRECTION('DIRECTION3',(1.,0.,0.));
#473=DIRECTION('DIRECTION6',(0.,0.,1.));
#474=DIRECTION('DIRECTION7',(1.,0.,0.));
#475=CARTESIAN_POINT('',(6.93889390390723E-17,6.,3.53883589099269E-16));
#476=CARTESIAN_POINT('',(6.93889390390723E-17,9.,3.53883589099269E-16));
#477=CARTESIAN_POINT('',(2.4,9.,3.53883589099269E-16));
#478=CARTESIAN_POINT('',(6.93889390390723E-17,6.,3.53883589099269E-16));
#479=CARTESIAN_POINT('',(2.4,6.,3.53883589099269E-16));
#480=CARTESIAN_POINT('',(6.93889390390723E-17,9.,3.53883589099269E-16));
#481=CARTESIAN_POINT('',(-3.55,-6.,-3.55));
#482=CARTESIAN_POINT('',(-3.55,6.,-3.55));
#483=CARTESIAN_POINT('',(-3.75,6.,-3.55));
#484=CARTESIAN_POINT('',(-3.55,6.,-3.75));
#485=CARTESIAN_POINT('',(-3.55,-6.,-3.75));
#486=CARTESIAN_POINT('',(-3.55,-6.,-3.75));
#487=CARTESIAN_POINT('',(-3.55,-6.,-3.55));
#488=CARTESIAN_POINT('',(-3.75,-6.,-3.55));
#489=CARTESIAN_POINT('',(-3.75,-6.,-3.55));
#490=CARTESIAN_POINT('',(-4.44089209850063E-16,-6.,-3.75));
#491=CARTESIAN_POINT('',(3.55,6.,-3.75));
#492=CARTESIAN_POINT('',(3.55,6.,-3.75));
#493=CARTESIAN_POINT('',(3.55,-6.,-3.75));
#494=CARTESIAN_POINT('',(3.55,-6.,-3.75));
#495=CARTESIAN_POINT('',(3.55,-6.,-3.75));
#496=CARTESIAN_POINT('',(3.55,-6.,-3.55));
#497=CARTESIAN_POINT('',(3.55,6.,-3.55));
#498=CARTESIAN_POINT('',(3.75,6.,-3.55));
#499=CARTESIAN_POINT('',(3.75,-6.,-3.55));
#500=CARTESIAN_POINT('',(3.75,-6.,-3.55));
#501=CARTESIAN_POINT('',(3.55,-6.,-3.55));
#502=CARTESIAN_POINT('',(3.75,-6.,8.88178419700125E-16));
#503=CARTESIAN_POINT('',(3.75,6.,3.55));
#504=CARTESIAN_POINT('',(3.75,6.,3.55));
#505=CARTESIAN_POINT('',(3.75,-6.,3.55));
#506=CARTESIAN_POINT('',(3.75,-6.,3.55));
#507=CARTESIAN_POINT('',(3.75,-6.,3.55));
#508=CARTESIAN_POINT('',(3.55,-6.,3.55));
#509=CARTESIAN_POINT('',(3.55,6.,3.55));
#510=CARTESIAN_POINT('',(3.55,6.,3.75));
#511=CARTESIAN_POINT('',(3.55,-6.,3.75));
#512=CARTESIAN_POINT('',(3.55,-6.,3.75));
#513=CARTESIAN_POINT('',(3.55,-6.,3.55));
#514=CARTESIAN_POINT('',(0.,-6.,3.75));
#515=CARTESIAN_POINT('',(-3.55,6.,3.75));
#516=CARTESIAN_POINT('',(-3.55,6.,3.75));
#517=CARTESIAN_POINT('',(-3.55,-6.,3.75));
#518=CARTESIAN_POINT('',(-3.55,-6.,3.75));
#519=CARTESIAN_POINT('',(-3.55,-6.,3.75));
#520=CARTESIAN_POINT('',(-3.55,-6.,3.55));
#521=CARTESIAN_POINT('',(-3.55,6.,3.55));
#522=CARTESIAN_POINT('',(-3.75,6.,3.55));
#523=CARTESIAN_POINT('',(-3.75,-6.,3.55));
#524=CARTESIAN_POINT('',(-3.75,-6.,3.55));
#525=CARTESIAN_POINT('',(-3.55,-6.,3.55));
#526=CARTESIAN_POINT('',(-3.75,-6.,8.88178419700125E-16));
#527=CARTESIAN_POINT('',(-3.75,6.,-3.55));
#528=CARTESIAN_POINT('',(-3.75,-6.,-3.55));
#529=CARTESIAN_POINT('',(6.93889390390723E-17,6.,3.53883589099269E-16));
#530=CARTESIAN_POINT('',(6.93889390390723E-17,-6.,3.53883589099269E-16));
#531=CARTESIAN_POINT('CARTESIAN_POINT4',(0.539409637451172,-5.42929028895445E-17,
-0.886699676513672));
#532=CARTESIAN_POINT('CARTESIAN_POINT8',(0.,0.,0.));
#533=CYLINDRICAL_SURFACE('',#394,2.4);
#534=CYLINDRICAL_SURFACE('',#398,0.2);
#535=CYLINDRICAL_SURFACE('',#402,0.2);
#536=CYLINDRICAL_SURFACE('',#406,0.200000000000001);
#537=CYLINDRICAL_SURFACE('',#410,0.2);
#538=CLOSED_SHELL('',(#382,#383,#384,#385,#386,#387,#388,#389,#390,#391,
#392,#393));
#539=MANIFOLD_SOLID_BREP('',#538);
#540=ADVANCED_BREP_SHAPE_REPRESENTATION('Collet Block',(#539),#207);
ENDSEC;
END-ISO-10303-21;
