ISO-10303-21;
HEADER;
/* Generated by software containing ST-Developer
 * from STEP Tools, Inc. (www.steptools.com) 
 */

FILE_DESCRIPTION(
/* description */ ('Alibre Inc.'),
/* implementation_level */ '2;1');

FILE_NAME(
/* name */ 'export-56445B56-73D6-42B2-8EDE-9B6EAC9A4F79',
/* time_stamp */ '2025-04-05T22:03:19+08:00',
/* author */ (''),
/* organization */ (''),
/* preprocessor_version */ 'ST-DEVELOPER v17',
/* originating_system */ 'Alibre',
/* authorisation */ '');

FILE_SCHEMA (('CONFIG_CONTROL_DESIGN'));
ENDSEC;

DATA;
#10=MECHANICAL_CONTEXT('detailed design',#18,'mechanical');
#11=PRODUCT_RELATED_PRODUCT_CATEGORY('detail','',(#98));
#12=CC_DESIGN_SECURITY_CLASSIFICATION(#14,(#97));
#13=SECURITY_CLASSIFICATION_LEVEL('unclassified');
#14=SECURITY_CLASSIFICATION('name','Security for version',#13);
#15=SHAPE_DEFINITION_REPRESENTATION(#16,#483);
#16=PRODUCT_DEFINITION_SHAPE('','DefinitionDesc',#96);
#17=APPLICATION_PROTOCOL_DEFINITION('AP definition status',
'config_control_design',1994,#18);
#18=APPLICATION_CONTEXT(
'control the configuration of three dimensional design');
#19=DESIGN_CONTEXT('detailed design',#18,'design');
#20=PERSON_AND_ORGANIZATION_ROLE('creator');
#21=PERSON_AND_ORGANIZATION_ROLE('classification_officer');
#22=PERSON_AND_ORGANIZATION_ROLE('creator');
#23=PERSON_AND_ORGANIZATION_ROLE('design_supplier');
#24=PERSON_AND_ORGANIZATION_ROLE('design_owner');
#25=CC_DESIGN_PERSON_AND_ORGANIZATION_ASSIGNMENT(#57,#20,(#96));
#26=CC_DESIGN_PERSON_AND_ORGANIZATION_ASSIGNMENT(#60,#21,(#14));
#27=CC_DESIGN_PERSON_AND_ORGANIZATION_ASSIGNMENT(#61,#22,(#97));
#28=CC_DESIGN_PERSON_AND_ORGANIZATION_ASSIGNMENT(#62,#23,(#97));
#29=CC_DESIGN_PERSON_AND_ORGANIZATION_ASSIGNMENT(#63,#24,(#98));
#30=DATE_TIME_ROLE('creation_date');
#31=DATE_TIME_ROLE('classification_date');
#32=CC_DESIGN_DATE_AND_TIME_ASSIGNMENT(#86,#30,(#96));
#33=CC_DESIGN_DATE_AND_TIME_ASSIGNMENT(#89,#31,(#14));
#34=CC_DESIGN_APPROVAL(#93,(#96));
#35=CC_DESIGN_APPROVAL(#94,(#97));
#36=CC_DESIGN_APPROVAL(#95,(#14));
#37=APPROVAL_PERSON_ORGANIZATION(#56,#93,#64);
#38=APPROVAL_PERSON_ORGANIZATION(#58,#94,#65);
#39=APPROVAL_PERSON_ORGANIZATION(#59,#95,#66);
#40=ORGANIZATION('DEFINITION_APPROVEDBY_ORG_ID',
'DEFINITION_APPROVEDBY_ORG_NAME','DEFINITION_APPROVEDBY_ORG_DESCR');
#41=ORGANIZATION('DEF_CREATOR_ORG_ID','DEF_CREATOR_ORG_NAME',
'DEF_CREATOR_ORG_DESCR');
#42=ORGANIZATION('APPROVEDBY_ORG_ID','APPROVEDBY_ORG_NAME',
'APPROVEDBY_ORG_DESCR');
#43=ORGANIZATION('SECURITY_APPROVEDBY_ORG_ID',
'SECURITY_APPROVEDBY_ORG_NAME','SECURITY_APPROVEDBY_ORG_DESCR');
#44=ORGANIZATION('CLASSOFFICER_ORG_ID','CLASSOFFICER_ORG_NAME',
'CLASSOFFICER_ORG_DESCR');
#45=ORGANIZATION('CREATOR_ORG_ID','CREATOR_ORG_NAME',
'CREATOR_ORG_DESCR');
#46=ORGANIZATION('SUPPLIER_ORG_ID','SUPPLIER_ORG_NAME',
'SUPPLIER_ORG_DESCR');
#47=ORGANIZATION('OWNER_ORG_ID','OWNER_ORG_NAME','OWNER_ORG_DESCR');
#48=PERSON('DEFINITION_approverID','DEFINITION_APPROVEDBY_LASTNAME',
'DEFINITION_APPROVEDBY_FIRSTNAME',$,$,$);
#49=PERSON('DEF_createrID','DEF_CREATOR_LASTNAME',
'DEF_CREATOR_FIRSTNAME',$,$,$);
#50=PERSON('approverID','APPROVEDBY_LASTNAME','APPROVEDBY_FIRSTNAME',$,
$,$);
#51=PERSON('SECURITY_approverID','SECURITY_LASTNAME',
'SECURITY_APPROVEDBY_FIRSTNAME',$,$,$);
#52=PERSON('classifierID','CLASSOFFICER_LASTNAME',
'CLASSOFFICER_FIRSTNAME',$,$,$);
#53=PERSON('createrID','CREATOR_LASTNAME','CREATOR_FIRSTNAME',$,$,$);
#54=PERSON('supplierID','SUPPLIER_LASTNAME','SUPPLIER_FIRSTNAME',$,$,$);
#55=PERSON('ownerID','OWNER_LASTNAME','OWNER_FIRSTNAME',$,$,$);
#56=PERSON_AND_ORGANIZATION(#48,#40);
#57=PERSON_AND_ORGANIZATION(#49,#41);
#58=PERSON_AND_ORGANIZATION(#50,#42);
#59=PERSON_AND_ORGANIZATION(#51,#43);
#60=PERSON_AND_ORGANIZATION(#52,#44);
#61=PERSON_AND_ORGANIZATION(#53,#45);
#62=PERSON_AND_ORGANIZATION(#54,#46);
#63=PERSON_AND_ORGANIZATION(#55,#47);
#64=APPROVAL_ROLE('definition_approval');
#65=APPROVAL_ROLE('version_approval');
#66=APPROVAL_ROLE('security_approval');
#67=APPROVAL_DATE_TIME(#85,#93);
#68=APPROVAL_DATE_TIME(#87,#94);
#69=APPROVAL_DATE_TIME(#88,#95);
#70=COORDINATED_UNIVERSAL_TIME_OFFSET(8,0,.AHEAD.);
#71=COORDINATED_UNIVERSAL_TIME_OFFSET(8,0,.AHEAD.);
#72=COORDINATED_UNIVERSAL_TIME_OFFSET(8,0,.AHEAD.);
#73=COORDINATED_UNIVERSAL_TIME_OFFSET(8,0,.AHEAD.);
#74=COORDINATED_UNIVERSAL_TIME_OFFSET(8,0,.AHEAD.);
#75=LOCAL_TIME(11,55,5.,#70);
#76=LOCAL_TIME(11,55,5.,#71);
#77=LOCAL_TIME(11,55,5.,#72);
#78=LOCAL_TIME(11,55,5.,#73);
#79=LOCAL_TIME(11,55,5.,#74);
#80=CALENDAR_DATE(2025,22,3);
#81=CALENDAR_DATE(2025,22,3);
#82=CALENDAR_DATE(2025,22,3);
#83=CALENDAR_DATE(2025,22,3);
#84=CALENDAR_DATE(2025,22,3);
#85=DATE_AND_TIME(#80,#75);
#86=DATE_AND_TIME(#81,#76);
#87=DATE_AND_TIME(#82,#77);
#88=DATE_AND_TIME(#83,#78);
#89=DATE_AND_TIME(#84,#79);
#90=APPROVAL_STATUS('not_yet_approved');
#91=APPROVAL_STATUS('not_yet_approved');
#92=APPROVAL_STATUS('not_yet_approved');
#93=APPROVAL(#90,'defintion approval');
#94=APPROVAL(#91,'version approval');
#95=APPROVAL(#92,'security approval');
#96=PRODUCT_DEFINITION('DefinitionID','DefinitionDesc',#97,#19);
#97=PRODUCT_DEFINITION_FORMATION_WITH_SPECIFIED_SOURCE(
'PRODUCT_VERSION_ID','PRODUCT_VERSION_DESCR',#98,.NOT_KNOWN.);
#98=PRODUCT('','Part# 9241889RM EX5500 Track Adjuster Sleeve Standard',
'',(#10));
#99=(
LENGTH_UNIT()
NAMED_UNIT(*)
SI_UNIT(.CENTI.,.METRE.)
);
#100=(
NAMED_UNIT(*)
PLANE_ANGLE_UNIT()
SI_UNIT($,.RADIAN.)
);
#101=(
NAMED_UNIT(*)
SI_UNIT($,.STERADIAN.)
SOLID_ANGLE_UNIT()
);
#102=UNCERTAINTY_MEASURE_WITH_UNIT(LENGTH_MEASURE(1.E-6),#99,
'DISTANCE_ACCURACY_VALUE',
'Maximum model space distance between geometric entities at asserted c
onnectivities');
#103=(
GEOMETRIC_REPRESENTATION_CONTEXT(3)
GLOBAL_UNCERTAINTY_ASSIGNED_CONTEXT((#102))
GLOBAL_UNIT_ASSIGNED_CONTEXT((#101,#100,#99))
REPRESENTATION_CONTEXT('ID1','3D')
);
#104=PLANE('',#328);
#105=PLANE('',#332);
#106=PLANE('',#340);
#107=CYLINDRICAL_SURFACE('',#306,9.9615);
#108=CYLINDRICAL_SURFACE('',#312,9.9615);
#109=CYLINDRICAL_SURFACE('',#318,9.9615);
#110=CYLINDRICAL_SURFACE('',#324,9.9615);
#111=CYLINDRICAL_SURFACE('',#330,10.7615);
#112=CYLINDRICAL_SURFACE('',#336,11.425);
#113=VERTEX_POINT('',#343);
#114=VERTEX_POINT('',#345);
#115=VERTEX_POINT('',#348);
#116=VERTEX_POINT('',#351);
#117=VERTEX_POINT('',#354);
#118=VERTEX_POINT('',#357);
#119=VERTEX_POINT('',#360);
#120=VERTEX_POINT('',#363);
#121=VERTEX_POINT('',#366);
#122=VERTEX_POINT('',#369);
#123=VERTEX_POINT('',#372);
#124=VERTEX_POINT('',#375);
#125=VERTEX_POINT('',#378);
#126=VERTEX_POINT('',#381);
#127=VERTEX_POINT('',#384);
#128=VERTEX_POINT('',#387);
#129=VERTEX_POINT('',#390);
#130=VERTEX_POINT('',#393);
#131=VERTEX_POINT('',#396);
#132=CIRCLE('',#304,10.1990644347017);
#133=CIRCLE('',#305,9.9615);
#134=CIRCLE('',#307,9.9615);
#135=CIRCLE('',#309,10.3001751345948);
#136=CIRCLE('',#311,9.9615);
#137=CIRCLE('',#313,9.9615);
#138=CIRCLE('',#315,10.3001751345948);
#139=CIRCLE('',#317,9.9615);
#140=CIRCLE('',#319,9.9615);
#141=CIRCLE('',#321,10.3001751345948);
#142=CIRCLE('',#323,9.9615);
#143=CIRCLE('',#325,9.9615);
#144=CIRCLE('',#327,10.0918847577293);
#145=CIRCLE('',#329,10.7615);
#146=CIRCLE('',#331,10.7615);
#147=CIRCLE('',#333,11.225);
#148=CIRCLE('',#335,11.425);
#149=CIRCLE('',#337,11.425);
#150=CIRCLE('',#339,10.8250000000001);
#151=EDGE_CURVE('',#113,#113,#132,.T.);
#152=EDGE_CURVE('',#114,#114,#133,.T.);
#153=EDGE_CURVE('',#115,#115,#134,.T.);
#154=EDGE_CURVE('',#116,#116,#135,.T.);
#155=EDGE_CURVE('',#117,#117,#136,.T.);
#156=EDGE_CURVE('',#118,#118,#137,.T.);
#157=EDGE_CURVE('',#119,#119,#138,.T.);
#158=EDGE_CURVE('',#120,#120,#139,.T.);
#159=EDGE_CURVE('',#121,#121,#140,.T.);
#160=EDGE_CURVE('',#122,#122,#141,.T.);
#161=EDGE_CURVE('',#123,#123,#142,.T.);
#162=EDGE_CURVE('',#124,#124,#143,.T.);
#163=EDGE_CURVE('',#125,#125,#144,.T.);
#164=EDGE_CURVE('',#126,#126,#145,.T.);
#165=EDGE_CURVE('',#127,#127,#146,.T.);
#166=EDGE_CURVE('',#128,#128,#147,.T.);
#167=EDGE_CURVE('',#129,#129,#148,.T.);
#168=EDGE_CURVE('',#130,#130,#149,.T.);
#169=EDGE_CURVE('',#131,#131,#150,.T.);
#170=ORIENTED_EDGE('',*,*,#151,.T.);
#171=ORIENTED_EDGE('',*,*,#152,.F.);
#172=ORIENTED_EDGE('',*,*,#153,.F.);
#173=ORIENTED_EDGE('',*,*,#152,.T.);
#174=ORIENTED_EDGE('',*,*,#153,.T.);
#175=ORIENTED_EDGE('',*,*,#154,.F.);
#176=ORIENTED_EDGE('',*,*,#154,.T.);
#177=ORIENTED_EDGE('',*,*,#155,.F.);
#178=ORIENTED_EDGE('',*,*,#156,.F.);
#179=ORIENTED_EDGE('',*,*,#155,.T.);
#180=ORIENTED_EDGE('',*,*,#156,.T.);
#181=ORIENTED_EDGE('',*,*,#157,.F.);
#182=ORIENTED_EDGE('',*,*,#157,.T.);
#183=ORIENTED_EDGE('',*,*,#158,.F.);
#184=ORIENTED_EDGE('',*,*,#159,.F.);
#185=ORIENTED_EDGE('',*,*,#158,.T.);
#186=ORIENTED_EDGE('',*,*,#159,.T.);
#187=ORIENTED_EDGE('',*,*,#160,.F.);
#188=ORIENTED_EDGE('',*,*,#160,.T.);
#189=ORIENTED_EDGE('',*,*,#161,.F.);
#190=ORIENTED_EDGE('',*,*,#162,.F.);
#191=ORIENTED_EDGE('',*,*,#161,.T.);
#192=ORIENTED_EDGE('',*,*,#162,.T.);
#193=ORIENTED_EDGE('',*,*,#163,.F.);
#194=ORIENTED_EDGE('',*,*,#164,.F.);
#195=ORIENTED_EDGE('',*,*,#163,.T.);
#196=ORIENTED_EDGE('',*,*,#165,.F.);
#197=ORIENTED_EDGE('',*,*,#164,.T.);
#198=ORIENTED_EDGE('',*,*,#166,.F.);
#199=ORIENTED_EDGE('',*,*,#165,.T.);
#200=ORIENTED_EDGE('',*,*,#167,.F.);
#201=ORIENTED_EDGE('',*,*,#166,.T.);
#202=ORIENTED_EDGE('',*,*,#168,.F.);
#203=ORIENTED_EDGE('',*,*,#167,.T.);
#204=ORIENTED_EDGE('',*,*,#169,.F.);
#205=ORIENTED_EDGE('',*,*,#168,.T.);
#206=ORIENTED_EDGE('',*,*,#151,.F.);
#207=ORIENTED_EDGE('',*,*,#169,.T.);
#208=EDGE_LOOP('',(#170));
#209=EDGE_LOOP('',(#171));
#210=EDGE_LOOP('',(#172));
#211=EDGE_LOOP('',(#173));
#212=EDGE_LOOP('',(#174));
#213=EDGE_LOOP('',(#175));
#214=EDGE_LOOP('',(#176));
#215=EDGE_LOOP('',(#177));
#216=EDGE_LOOP('',(#178));
#217=EDGE_LOOP('',(#179));
#218=EDGE_LOOP('',(#180));
#219=EDGE_LOOP('',(#181));
#220=EDGE_LOOP('',(#182));
#221=EDGE_LOOP('',(#183));
#222=EDGE_LOOP('',(#184));
#223=EDGE_LOOP('',(#185));
#224=EDGE_LOOP('',(#186));
#225=EDGE_LOOP('',(#187));
#226=EDGE_LOOP('',(#188));
#227=EDGE_LOOP('',(#189));
#228=EDGE_LOOP('',(#190));
#229=EDGE_LOOP('',(#191));
#230=EDGE_LOOP('',(#192));
#231=EDGE_LOOP('',(#193));
#232=EDGE_LOOP('',(#194));
#233=EDGE_LOOP('',(#195));
#234=EDGE_LOOP('',(#196));
#235=EDGE_LOOP('',(#197));
#236=EDGE_LOOP('',(#198));
#237=EDGE_LOOP('',(#199));
#238=EDGE_LOOP('',(#200));
#239=EDGE_LOOP('',(#201));
#240=EDGE_LOOP('',(#202));
#241=EDGE_LOOP('',(#203));
#242=EDGE_LOOP('',(#204));
#243=EDGE_LOOP('',(#205));
#244=EDGE_LOOP('',(#206));
#245=EDGE_LOOP('',(#207));
#246=FACE_BOUND('',#208,.T.);
#247=FACE_BOUND('',#209,.T.);
#248=FACE_BOUND('',#210,.T.);
#249=FACE_BOUND('',#211,.T.);
#250=FACE_BOUND('',#212,.T.);
#251=FACE_BOUND('',#213,.T.);
#252=FACE_BOUND('',#214,.T.);
#253=FACE_BOUND('',#215,.T.);
#254=FACE_BOUND('',#216,.T.);
#255=FACE_BOUND('',#217,.T.);
#256=FACE_BOUND('',#218,.T.);
#257=FACE_BOUND('',#219,.T.);
#258=FACE_BOUND('',#220,.T.);
#259=FACE_BOUND('',#221,.T.);
#260=FACE_BOUND('',#222,.T.);
#261=FACE_BOUND('',#223,.T.);
#262=FACE_BOUND('',#224,.T.);
#263=FACE_BOUND('',#225,.T.);
#264=FACE_BOUND('',#226,.T.);
#265=FACE_BOUND('',#227,.T.);
#266=FACE_BOUND('',#228,.T.);
#267=FACE_BOUND('',#229,.T.);
#268=FACE_BOUND('',#230,.T.);
#269=FACE_BOUND('',#231,.T.);
#270=FACE_BOUND('',#232,.T.);
#271=FACE_BOUND('',#233,.T.);
#272=FACE_BOUND('',#234,.T.);
#273=FACE_BOUND('',#235,.T.);
#274=FACE_BOUND('',#236,.T.);
#275=FACE_BOUND('',#237,.T.);
#276=FACE_BOUND('',#238,.T.);
#277=FACE_BOUND('',#239,.T.);
#278=FACE_BOUND('',#240,.T.);
#279=FACE_BOUND('',#241,.T.);
#280=FACE_BOUND('',#242,.T.);
#281=FACE_BOUND('',#243,.T.);
#282=FACE_BOUND('',#244,.T.);
#283=FACE_BOUND('',#245,.T.);
#284=ADVANCED_FACE('',(#246,#247),#471,.F.);
#285=ADVANCED_FACE('',(#248,#249),#107,.F.);
#286=ADVANCED_FACE('',(#250,#251),#472,.F.);
#287=ADVANCED_FACE('',(#252,#253),#473,.F.);
#288=ADVANCED_FACE('',(#254,#255),#108,.F.);
#289=ADVANCED_FACE('',(#256,#257),#474,.F.);
#290=ADVANCED_FACE('',(#258,#259),#475,.F.);
#291=ADVANCED_FACE('',(#260,#261),#109,.F.);
#292=ADVANCED_FACE('',(#262,#263),#476,.F.);
#293=ADVANCED_FACE('',(#264,#265),#477,.F.);
#294=ADVANCED_FACE('',(#266,#267),#110,.F.);
#295=ADVANCED_FACE('',(#268,#269),#478,.F.);
#296=ADVANCED_FACE('',(#270,#271),#104,.T.);
#297=ADVANCED_FACE('',(#272,#273),#111,.F.);
#298=ADVANCED_FACE('',(#274,#275),#105,.T.);
#299=ADVANCED_FACE('',(#276,#277),#479,.T.);
#300=ADVANCED_FACE('',(#278,#279),#112,.T.);
#301=ADVANCED_FACE('',(#280,#281),#480,.T.);
#302=ADVANCED_FACE('',(#282,#283),#106,.T.);
#303=AXIS2_PLACEMENT_3D('',#341,#398,#399);
#304=AXIS2_PLACEMENT_3D('',#342,#400,#401);
#305=AXIS2_PLACEMENT_3D('',#344,#402,#403);
#306=AXIS2_PLACEMENT_3D('',#346,#404,#405);
#307=AXIS2_PLACEMENT_3D('',#347,#406,#407);
#308=AXIS2_PLACEMENT_3D('',#349,#408,#409);
#309=AXIS2_PLACEMENT_3D('',#350,#410,#411);
#310=AXIS2_PLACEMENT_3D('',#352,#412,#413);
#311=AXIS2_PLACEMENT_3D('',#353,#414,#415);
#312=AXIS2_PLACEMENT_3D('',#355,#416,#417);
#313=AXIS2_PLACEMENT_3D('',#356,#418,#419);
#314=AXIS2_PLACEMENT_3D('',#358,#420,#421);
#315=AXIS2_PLACEMENT_3D('',#359,#422,#423);
#316=AXIS2_PLACEMENT_3D('',#361,#424,#425);
#317=AXIS2_PLACEMENT_3D('',#362,#426,#427);
#318=AXIS2_PLACEMENT_3D('',#364,#428,#429);
#319=AXIS2_PLACEMENT_3D('',#365,#430,#431);
#320=AXIS2_PLACEMENT_3D('',#367,#432,#433);
#321=AXIS2_PLACEMENT_3D('',#368,#434,#435);
#322=AXIS2_PLACEMENT_3D('',#370,#436,#437);
#323=AXIS2_PLACEMENT_3D('',#371,#438,#439);
#324=AXIS2_PLACEMENT_3D('',#373,#440,#441);
#325=AXIS2_PLACEMENT_3D('',#374,#442,#443);
#326=AXIS2_PLACEMENT_3D('',#376,#444,#445);
#327=AXIS2_PLACEMENT_3D('',#377,#446,#447);
#328=AXIS2_PLACEMENT_3D('',#379,#448,$);
#329=AXIS2_PLACEMENT_3D('',#380,#449,#450);
#330=AXIS2_PLACEMENT_3D('',#382,#451,#452);
#331=AXIS2_PLACEMENT_3D('',#383,#453,#454);
#332=AXIS2_PLACEMENT_3D('',#385,#455,$);
#333=AXIS2_PLACEMENT_3D('',#386,#456,#457);
#334=AXIS2_PLACEMENT_3D('',#388,#458,#459);
#335=AXIS2_PLACEMENT_3D('',#389,#460,#461);
#336=AXIS2_PLACEMENT_3D('',#391,#462,#463);
#337=AXIS2_PLACEMENT_3D('',#392,#464,#465);
#338=AXIS2_PLACEMENT_3D('',#394,#466,#467);
#339=AXIS2_PLACEMENT_3D('',#395,#468,#469);
#340=AXIS2_PLACEMENT_3D('',#397,#470,$);
#341=CARTESIAN_POINT('',(0.,0.,-0.493301270189254));
#342=CARTESIAN_POINT('',(0.,0.,0.3));
#343=CARTESIAN_POINT('',(0.,-10.1990644347017,0.3));
#344=CARTESIAN_POINT('',(0.,0.,-0.586602540378508));
#345=CARTESIAN_POINT('',(0.,-9.9615,-0.586602540378508));
#346=CARTESIAN_POINT('',(0.,0.,-1.75000000000003));
#347=CARTESIAN_POINT('',(0.,0.,-2.91339745962155));
#348=CARTESIAN_POINT('',(0.,-9.9615,-2.91339745962155));
#349=CARTESIAN_POINT('',(0.,0.,-3.25));
#350=CARTESIAN_POINT('',(0.,0.,-3.5));
#351=CARTESIAN_POINT('',(0.,-10.3001751345948,-3.5));
#352=CARTESIAN_POINT('',(0.,0.,-4.04330127018922));
#353=CARTESIAN_POINT('',(0.,0.,-4.08660254037845));
#354=CARTESIAN_POINT('',(0.,-9.9615,-4.08660254037845));
#355=CARTESIAN_POINT('',(0.,0.,-6.));
#356=CARTESIAN_POINT('',(0.,0.,-7.91339745962155));
#357=CARTESIAN_POINT('',(0.,-9.9615,-7.91339745962155));
#358=CARTESIAN_POINT('',(0.,0.,-8.25000000000001));
#359=CARTESIAN_POINT('',(0.,0.,-8.50000000000001));
#360=CARTESIAN_POINT('',(0.,-10.3001751345948,-8.50000000000001));
#361=CARTESIAN_POINT('',(0.,0.,-9.04330127018923));
#362=CARTESIAN_POINT('',(0.,0.,-9.08660254037845));
#363=CARTESIAN_POINT('',(0.,-9.9615,-9.08660254037845));
#364=CARTESIAN_POINT('',(0.,0.,-11.0000000000001));
#365=CARTESIAN_POINT('',(0.,0.,-12.9133974596217));
#366=CARTESIAN_POINT('',(0.,-9.9615,-12.9133974596217));
#367=CARTESIAN_POINT('',(0.,0.,-13.2500000000001));
#368=CARTESIAN_POINT('',(0.,0.,-13.5));
#369=CARTESIAN_POINT('',(0.,-10.3001751345948,-13.5));
#370=CARTESIAN_POINT('',(0.,0.,-14.0433012701894));
#371=CARTESIAN_POINT('',(0.,0.,-14.0866025403786));
#372=CARTESIAN_POINT('',(0.,-9.9615,-14.0866025403786));
#373=CARTESIAN_POINT('',(0.,0.,-14.75));
#374=CARTESIAN_POINT('',(0.,0.,-15.4133974596215));
#375=CARTESIAN_POINT('',(0.,-9.9615,-15.4133974596215));
#376=CARTESIAN_POINT('',(0.,0.,-15.75));
#377=CARTESIAN_POINT('',(0.,0.,-15.9));
#378=CARTESIAN_POINT('',(0.,-10.0918847577293,-15.9));
#379=CARTESIAN_POINT('',(0.,-10.4266923788647,-15.9));
#380=CARTESIAN_POINT('',(0.,0.,-15.9));
#381=CARTESIAN_POINT('',(0.,-10.7615,-15.9));
#382=CARTESIAN_POINT('',(0.,0.,-16.45));
#383=CARTESIAN_POINT('',(0.,0.,-17.));
#384=CARTESIAN_POINT('',(0.,-10.7615,-17.));
#385=CARTESIAN_POINT('',(0.,-10.99325,-17.));
#386=CARTESIAN_POINT('',(0.,0.,-17.));
#387=CARTESIAN_POINT('',(0.,-11.225,-17.));
#388=CARTESIAN_POINT('',(0.,0.,-16.9));
#389=CARTESIAN_POINT('',(0.,0.,-16.8));
#390=CARTESIAN_POINT('',(0.,-11.425,-16.8));
#391=CARTESIAN_POINT('',(0.,0.,-8.54999999999997));
#392=CARTESIAN_POINT('',(0.,0.,-0.29999999999993));
#393=CARTESIAN_POINT('',(0.,-11.425,-0.29999999999993));
#394=CARTESIAN_POINT('',(0.,0.,3.54716256367738E-14));
#395=CARTESIAN_POINT('',(0.,0.,0.300000000000001));
#396=CARTESIAN_POINT('',(0.,-10.8250000000001,0.300000000000001));
#397=CARTESIAN_POINT('',(0.,-10.5120322173509,0.300000000000001));
#398=DIRECTION('',(0.,0.,1.));
#399=DIRECTION('',(0.,-9.9865,0.));
#400=DIRECTION('',(0.,0.,1.));
#401=DIRECTION('',(0.,-10.1990644347017,0.));
#402=DIRECTION('',(0.,0.,1.));
#403=DIRECTION('',(0.,-9.9615,0.));
#404=DIRECTION('',(0.,0.,1.));
#405=DIRECTION('',(0.,-9.9615,0.));
#406=DIRECTION('',(0.,0.,1.));
#407=DIRECTION('',(0.,-9.9615,0.));
#408=DIRECTION('',(0.,0.,-1.));
#409=DIRECTION('',(0.,-10.1558375672974,0.));
#410=DIRECTION('',(0.,0.,1.));
#411=DIRECTION('',(0.,-10.3001751345948,0.));
#412=DIRECTION('',(0.,0.,1.));
#413=DIRECTION('',(0.,-9.9865,0.));
#414=DIRECTION('',(0.,0.,1.));
#415=DIRECTION('',(0.,-9.9615,0.));
#416=DIRECTION('',(0.,0.,1.));
#417=DIRECTION('',(0.,-9.9615,0.));
#418=DIRECTION('',(0.,0.,1.));
#419=DIRECTION('',(0.,-9.9615,0.));
#420=DIRECTION('',(0.,0.,-1.));
#421=DIRECTION('',(0.,-10.1558375672974,0.));
#422=DIRECTION('',(0.,0.,1.));
#423=DIRECTION('',(0.,-10.3001751345948,0.));
#424=DIRECTION('',(0.,0.,1.));
#425=DIRECTION('',(0.,-9.9865,0.));
#426=DIRECTION('',(0.,0.,1.));
#427=DIRECTION('',(0.,-9.9615,0.));
#428=DIRECTION('',(0.,0.,1.));
#429=DIRECTION('',(0.,-9.9615,0.));
#430=DIRECTION('',(0.,0.,1.));
#431=DIRECTION('',(0.,-9.9615,0.));
#432=DIRECTION('',(0.,0.,-1.));
#433=DIRECTION('',(0.,-10.1558375672974,0.));
#434=DIRECTION('',(0.,0.,1.));
#435=DIRECTION('',(0.,-10.3001751345948,0.));
#436=DIRECTION('',(0.,0.,1.));
#437=DIRECTION('',(0.,-9.9865,0.));
#438=DIRECTION('',(0.,0.,1.));
#439=DIRECTION('',(0.,-9.9615,0.));
#440=DIRECTION('',(0.,0.,1.));
#441=DIRECTION('',(0.,-9.9615,0.));
#442=DIRECTION('',(0.,0.,1.));
#443=DIRECTION('',(0.,-9.9615,0.));
#444=DIRECTION('',(0.,0.,-1.));
#445=DIRECTION('',(0.,-10.0516923788647,0.));
#446=DIRECTION('',(0.,0.,1.));
#447=DIRECTION('',(0.,-10.0918847577293,0.));
#448=DIRECTION('',(0.,-2.65280227698604E-15,-1.));
#449=DIRECTION('',(0.,0.,1.));
#450=DIRECTION('',(0.,-10.7615,0.));
#451=DIRECTION('',(0.,0.,1.));
#452=DIRECTION('',(0.,-10.7615,0.));
#453=DIRECTION('',(0.,0.,1.));
#454=DIRECTION('',(0.,-10.7615,0.));
#455=DIRECTION('',(0.,0.,-1.));
#456=DIRECTION('',(0.,0.,1.));
#457=DIRECTION('',(0.,-11.225,0.));
#458=DIRECTION('',(0.,0.,1.));
#459=DIRECTION('',(0.,-11.325,0.));
#460=DIRECTION('',(0.,0.,1.));
#461=DIRECTION('',(0.,-11.425,0.));
#462=DIRECTION('',(0.,0.,1.));
#463=DIRECTION('',(0.,-11.425,0.));
#464=DIRECTION('',(0.,0.,1.));
#465=DIRECTION('',(0.,-11.425,0.));
#466=DIRECTION('',(0.,0.,-1.));
#467=DIRECTION('',(0.,-11.125,0.));
#468=DIRECTION('',(0.,0.,1.));
#469=DIRECTION('',(0.,-10.8250000000001,0.));
#470=DIRECTION('',(0.,1.77370177726836E-16,1.));
#471=CONICAL_SURFACE('',#303,9.9865,0.261799387799067);
#472=CONICAL_SURFACE('',#308,10.1558375672974,0.523598775598302);
#473=CONICAL_SURFACE('',#310,9.9865,0.523598775598294);
#474=CONICAL_SURFACE('',#314,10.1558375672974,0.523598775598292);
#475=CONICAL_SURFACE('',#316,9.9865,0.523598775598278);
#476=CONICAL_SURFACE('',#320,10.1558375672974,0.523598775598414);
#477=CONICAL_SURFACE('',#322,9.9865,0.523598775598287);
#478=CONICAL_SURFACE('',#326,10.0516923788647,0.261799387799068);
#479=CONICAL_SURFACE('',#334,11.325,0.785398163397453);
#480=CONICAL_SURFACE('',#338,11.125,0.785398163397447);
#481=CLOSED_SHELL('',(#284,#285,#286,#287,#288,#289,#290,#291,#292,#293,
#294,#295,#296,#297,#298,#299,#300,#301,#302));
#482=MANIFOLD_SOLID_BREP('',#481);
#483=ADVANCED_BREP_SHAPE_REPRESENTATION('',(#482),#103);
ENDSEC;
END-ISO-10303-21;
