ISO-10303-21;
HEADER;
/* Generated by software containing ST-Developer
 * from STEP Tools, Inc. (www.steptools.com) 
 */

FILE_DESCRIPTION(
/* description */ ('Alibre Inc.'),
/* implementation_level */ '2;1');

FILE_NAME(
/* name */ 'export-2F6BA9CB-7B1C-48DF-A08E-15F48E057873',
/* time_stamp */ '2025-04-05T22:03:03+08:00',
/* author */ (''),
/* organization */ (''),
/* preprocessor_version */ 'ST-DEVELOPER v17',
/* originating_system */ 'Alibre',
/* authorisation */ '');

FILE_SCHEMA (('CONFIG_CONTROL_DESIGN'));
ENDSEC;

DATA;
#10=MECHANICAL_CONTEXT('detailed design',#18,'mechanical');
#11=PRODUCT_RELATED_PRODUCT_CATEGORY('detail','',(#98));
#12=CC_DESIGN_SECURITY_CLASSIFICATION(#14,(#97));
#13=SECURITY_CLASSIFICATION_LEVEL('unclassified');
#14=SECURITY_CLASSIFICATION('name','Security for version',#13);
#15=SHAPE_DEFINITION_REPRESENTATION(#16,#620);
#16=PRODUCT_DEFINITION_SHAPE('','DefinitionDesc',#96);
#17=APPLICATION_PROTOCOL_DEFINITION('AP definition status',
'config_control_design',1994,#18);
#18=APPLICATION_CONTEXT(
'control the configuration of three dimensional design');
#19=DESIGN_CONTEXT('detailed design',#18,'design');
#20=PERSON_AND_ORGANIZATION_ROLE('creator');
#21=PERSON_AND_ORGANIZATION_ROLE('classification_officer');
#22=PERSON_AND_ORGANIZATION_ROLE('creator');
#23=PERSON_AND_ORGANIZATION_ROLE('design_supplier');
#24=PERSON_AND_ORGANIZATION_ROLE('design_owner');
#25=CC_DESIGN_PERSON_AND_ORGANIZATION_ASSIGNMENT(#57,#20,(#96));
#26=CC_DESIGN_PERSON_AND_ORGANIZATION_ASSIGNMENT(#60,#21,(#14));
#27=CC_DESIGN_PERSON_AND_ORGANIZATION_ASSIGNMENT(#61,#22,(#97));
#28=CC_DESIGN_PERSON_AND_ORGANIZATION_ASSIGNMENT(#62,#23,(#97));
#29=CC_DESIGN_PERSON_AND_ORGANIZATION_ASSIGNMENT(#63,#24,(#98));
#30=DATE_TIME_ROLE('creation_date');
#31=DATE_TIME_ROLE('classification_date');
#32=CC_DESIGN_DATE_AND_TIME_ASSIGNMENT(#86,#30,(#96));
#33=CC_DESIGN_DATE_AND_TIME_ASSIGNMENT(#89,#31,(#14));
#34=CC_DESIGN_APPROVAL(#93,(#96));
#35=CC_DESIGN_APPROVAL(#94,(#97));
#36=CC_DESIGN_APPROVAL(#95,(#14));
#37=APPROVAL_PERSON_ORGANIZATION(#56,#93,#64);
#38=APPROVAL_PERSON_ORGANIZATION(#58,#94,#65);
#39=APPROVAL_PERSON_ORGANIZATION(#59,#95,#66);
#40=ORGANIZATION('DEFINITION_APPROVEDBY_ORG_ID',
'DEFINITION_APPROVEDBY_ORG_NAME','DEFINITION_APPROVEDBY_ORG_DESCR');
#41=ORGANIZATION('DEF_CREATOR_ORG_ID','DEF_CREATOR_ORG_NAME',
'DEF_CREATOR_ORG_DESCR');
#42=ORGANIZATION('APPROVEDBY_ORG_ID','APPROVEDBY_ORG_NAME',
'APPROVEDBY_ORG_DESCR');
#43=ORGANIZATION('SECURITY_APPROVEDBY_ORG_ID',
'SECURITY_APPROVEDBY_ORG_NAME','SECURITY_APPROVEDBY_ORG_DESCR');
#44=ORGANIZATION('CLASSOFFICER_ORG_ID','CLASSOFFICER_ORG_NAME',
'CLASSOFFICER_ORG_DESCR');
#45=ORGANIZATION('CREATOR_ORG_ID','CREATOR_ORG_NAME',
'CREATOR_ORG_DESCR');
#46=ORGANIZATION('SUPPLIER_ORG_ID','SUPPLIER_ORG_NAME',
'SUPPLIER_ORG_DESCR');
#47=ORGANIZATION('OWNER_ORG_ID','OWNER_ORG_NAME','OWNER_ORG_DESCR');
#48=PERSON('DEFINITION_approverID','DEFINITION_APPROVEDBY_LASTNAME',
'DEFINITION_APPROVEDBY_FIRSTNAME',$,$,$);
#49=PERSON('DEF_createrID','DEF_CREATOR_LASTNAME',
'DEF_CREATOR_FIRSTNAME',$,$,$);
#50=PERSON('approverID','APPROVEDBY_LASTNAME','APPROVEDBY_FIRSTNAME',$,
$,$);
#51=PERSON('SECURITY_approverID','SECURITY_LASTNAME',
'SECURITY_APPROVEDBY_FIRSTNAME',$,$,$);
#52=PERSON('classifierID','CLASSOFFICER_LASTNAME',
'CLASSOFFICER_FIRSTNAME',$,$,$);
#53=PERSON('createrID','CREATOR_LASTNAME','CREATOR_FIRSTNAME',$,$,$);
#54=PERSON('supplierID','SUPPLIER_LASTNAME','SUPPLIER_FIRSTNAME',$,$,$);
#55=PERSON('ownerID','OWNER_LASTNAME','OWNER_FIRSTNAME',$,$,$);
#56=PERSON_AND_ORGANIZATION(#48,#40);
#57=PERSON_AND_ORGANIZATION(#49,#41);
#58=PERSON_AND_ORGANIZATION(#50,#42);
#59=PERSON_AND_ORGANIZATION(#51,#43);
#60=PERSON_AND_ORGANIZATION(#52,#44);
#61=PERSON_AND_ORGANIZATION(#53,#45);
#62=PERSON_AND_ORGANIZATION(#54,#46);
#63=PERSON_AND_ORGANIZATION(#55,#47);
#64=APPROVAL_ROLE('definition_approval');
#65=APPROVAL_ROLE('version_approval');
#66=APPROVAL_ROLE('security_approval');
#67=APPROVAL_DATE_TIME(#85,#93);
#68=APPROVAL_DATE_TIME(#87,#94);
#69=APPROVAL_DATE_TIME(#88,#95);
#70=COORDINATED_UNIVERSAL_TIME_OFFSET(8,0,.AHEAD.);
#71=COORDINATED_UNIVERSAL_TIME_OFFSET(8,0,.AHEAD.);
#72=COORDINATED_UNIVERSAL_TIME_OFFSET(8,0,.AHEAD.);
#73=COORDINATED_UNIVERSAL_TIME_OFFSET(8,0,.AHEAD.);
#74=COORDINATED_UNIVERSAL_TIME_OFFSET(8,0,.AHEAD.);
#75=LOCAL_TIME(11,55,5.,#70);
#76=LOCAL_TIME(11,55,5.,#71);
#77=LOCAL_TIME(11,55,5.,#72);
#78=LOCAL_TIME(11,55,5.,#73);
#79=LOCAL_TIME(11,55,5.,#74);
#80=CALENDAR_DATE(2025,22,3);
#81=CALENDAR_DATE(2025,22,3);
#82=CALENDAR_DATE(2025,22,3);
#83=CALENDAR_DATE(2025,22,3);
#84=CALENDAR_DATE(2025,22,3);
#85=DATE_AND_TIME(#80,#75);
#86=DATE_AND_TIME(#81,#76);
#87=DATE_AND_TIME(#82,#77);
#88=DATE_AND_TIME(#83,#78);
#89=DATE_AND_TIME(#84,#79);
#90=APPROVAL_STATUS('not_yet_approved');
#91=APPROVAL_STATUS('not_yet_approved');
#92=APPROVAL_STATUS('not_yet_approved');
#93=APPROVAL(#90,'defintion approval');
#94=APPROVAL(#91,'version approval');
#95=APPROVAL(#92,'security approval');
#96=PRODUCT_DEFINITION('DefinitionID','DefinitionDesc',#97,#19);
#97=PRODUCT_DEFINITION_FORMATION_WITH_SPECIFIED_SOURCE(
'PRODUCT_VERSION_ID','PRODUCT_VERSION_DESCR',#98,.NOT_KNOWN.);
#98=PRODUCT('',
'Part# 9241889RM EX5500 Track Adjuster Sleeve Modified Land','',(#10));
#99=(
LENGTH_UNIT()
NAMED_UNIT(*)
SI_UNIT(.CENTI.,.METRE.)
);
#100=(
NAMED_UNIT(*)
PLANE_ANGLE_UNIT()
SI_UNIT($,.RADIAN.)
);
#101=(
NAMED_UNIT(*)
SI_UNIT($,.STERADIAN.)
SOLID_ANGLE_UNIT()
);
#102=UNCERTAINTY_MEASURE_WITH_UNIT(LENGTH_MEASURE(1.E-6),#99,
'DISTANCE_ACCURACY_VALUE',
'Maximum model space distance between geometric entities at asserted c
onnectivities');
#103=(
GEOMETRIC_REPRESENTATION_CONTEXT(3)
GLOBAL_UNCERTAINTY_ASSIGNED_CONTEXT((#102))
GLOBAL_UNIT_ASSIGNED_CONTEXT((#101,#100,#99))
REPRESENTATION_CONTEXT('ID1','3D')
);
#104=PLANE('',#404);
#105=PLANE('',#408);
#106=PLANE('',#412);
#107=PLANE('',#418);
#108=PLANE('',#422);
#109=PLANE('',#430);
#110=CYLINDRICAL_SURFACE('',#382,9.9615);
#111=CYLINDRICAL_SURFACE('',#388,9.9615);
#112=CYLINDRICAL_SURFACE('',#394,9.9615);
#113=CYLINDRICAL_SURFACE('',#400,9.9615);
#114=CYLINDRICAL_SURFACE('',#406,10.7615);
#115=CYLINDRICAL_SURFACE('',#410,10.0115);
#116=CYLINDRICAL_SURFACE('',#416,11.425);
#117=CYLINDRICAL_SURFACE('',#420,11.375);
#118=CYLINDRICAL_SURFACE('',#426,11.625);
#119=VERTEX_POINT('',#433);
#120=VERTEX_POINT('',#435);
#121=VERTEX_POINT('',#438);
#122=VERTEX_POINT('',#441);
#123=VERTEX_POINT('',#444);
#124=VERTEX_POINT('',#447);
#125=VERTEX_POINT('',#450);
#126=VERTEX_POINT('',#453);
#127=VERTEX_POINT('',#456);
#128=VERTEX_POINT('',#459);
#129=VERTEX_POINT('',#462);
#130=VERTEX_POINT('',#465);
#131=VERTEX_POINT('',#468);
#132=VERTEX_POINT('',#471);
#133=VERTEX_POINT('',#474);
#134=VERTEX_POINT('',#477);
#135=VERTEX_POINT('',#480);
#136=VERTEX_POINT('',#483);
#137=VERTEX_POINT('',#486);
#138=VERTEX_POINT('',#489);
#139=VERTEX_POINT('',#492);
#140=VERTEX_POINT('',#495);
#141=VERTEX_POINT('',#498);
#142=VERTEX_POINT('',#501);
#143=VERTEX_POINT('',#504);
#144=VERTEX_POINT('',#507);
#145=CIRCLE('',#380,10.1722695154586);
#146=CIRCLE('',#381,9.9615);
#147=CIRCLE('',#383,9.9615);
#148=CIRCLE('',#385,10.3001751345948);
#149=CIRCLE('',#387,9.9615);
#150=CIRCLE('',#389,9.9615);
#151=CIRCLE('',#391,10.3001751345948);
#152=CIRCLE('',#393,9.9615);
#153=CIRCLE('',#395,9.9615);
#154=CIRCLE('',#397,10.3001751345948);
#155=CIRCLE('',#399,9.9615);
#156=CIRCLE('',#401,9.9615);
#157=CIRCLE('',#403,10.0918847577293);
#158=CIRCLE('',#405,10.7615);
#159=CIRCLE('',#407,10.7615);
#160=CIRCLE('',#409,10.0115);
#161=CIRCLE('',#411,10.0115);
#162=CIRCLE('',#413,11.225);
#163=CIRCLE('',#415,11.425);
#164=CIRCLE('',#417,11.425);
#165=CIRCLE('',#419,11.375);
#166=CIRCLE('',#421,11.375);
#167=CIRCLE('',#423,11.525);
#168=CIRCLE('',#425,11.625);
#169=CIRCLE('',#427,11.625);
#170=CIRCLE('',#429,11.0250000000001);
#171=EDGE_CURVE('',#119,#119,#145,.T.);
#172=EDGE_CURVE('',#120,#120,#146,.T.);
#173=EDGE_CURVE('',#121,#121,#147,.T.);
#174=EDGE_CURVE('',#122,#122,#148,.T.);
#175=EDGE_CURVE('',#123,#123,#149,.T.);
#176=EDGE_CURVE('',#124,#124,#150,.T.);
#177=EDGE_CURVE('',#125,#125,#151,.T.);
#178=EDGE_CURVE('',#126,#126,#152,.T.);
#179=EDGE_CURVE('',#127,#127,#153,.T.);
#180=EDGE_CURVE('',#128,#128,#154,.T.);
#181=EDGE_CURVE('',#129,#129,#155,.T.);
#182=EDGE_CURVE('',#130,#130,#156,.T.);
#183=EDGE_CURVE('',#131,#131,#157,.T.);
#184=EDGE_CURVE('',#132,#132,#158,.T.);
#185=EDGE_CURVE('',#133,#133,#159,.T.);
#186=EDGE_CURVE('',#134,#134,#160,.T.);
#187=EDGE_CURVE('',#135,#135,#161,.T.);
#188=EDGE_CURVE('',#136,#136,#162,.T.);
#189=EDGE_CURVE('',#137,#137,#163,.T.);
#190=EDGE_CURVE('',#138,#138,#164,.T.);
#191=EDGE_CURVE('',#139,#139,#165,.T.);
#192=EDGE_CURVE('',#140,#140,#166,.T.);
#193=EDGE_CURVE('',#141,#141,#167,.T.);
#194=EDGE_CURVE('',#142,#142,#168,.T.);
#195=EDGE_CURVE('',#143,#143,#169,.T.);
#196=EDGE_CURVE('',#144,#144,#170,.T.);
#197=ORIENTED_EDGE('',*,*,#171,.T.);
#198=ORIENTED_EDGE('',*,*,#172,.F.);
#199=ORIENTED_EDGE('',*,*,#173,.F.);
#200=ORIENTED_EDGE('',*,*,#172,.T.);
#201=ORIENTED_EDGE('',*,*,#173,.T.);
#202=ORIENTED_EDGE('',*,*,#174,.F.);
#203=ORIENTED_EDGE('',*,*,#174,.T.);
#204=ORIENTED_EDGE('',*,*,#175,.F.);
#205=ORIENTED_EDGE('',*,*,#176,.F.);
#206=ORIENTED_EDGE('',*,*,#175,.T.);
#207=ORIENTED_EDGE('',*,*,#176,.T.);
#208=ORIENTED_EDGE('',*,*,#177,.F.);
#209=ORIENTED_EDGE('',*,*,#177,.T.);
#210=ORIENTED_EDGE('',*,*,#178,.F.);
#211=ORIENTED_EDGE('',*,*,#179,.F.);
#212=ORIENTED_EDGE('',*,*,#178,.T.);
#213=ORIENTED_EDGE('',*,*,#179,.T.);
#214=ORIENTED_EDGE('',*,*,#180,.F.);
#215=ORIENTED_EDGE('',*,*,#180,.T.);
#216=ORIENTED_EDGE('',*,*,#181,.F.);
#217=ORIENTED_EDGE('',*,*,#182,.F.);
#218=ORIENTED_EDGE('',*,*,#181,.T.);
#219=ORIENTED_EDGE('',*,*,#182,.T.);
#220=ORIENTED_EDGE('',*,*,#183,.F.);
#221=ORIENTED_EDGE('',*,*,#184,.F.);
#222=ORIENTED_EDGE('',*,*,#183,.T.);
#223=ORIENTED_EDGE('',*,*,#185,.F.);
#224=ORIENTED_EDGE('',*,*,#184,.T.);
#225=ORIENTED_EDGE('',*,*,#186,.F.);
#226=ORIENTED_EDGE('',*,*,#185,.T.);
#227=ORIENTED_EDGE('',*,*,#187,.F.);
#228=ORIENTED_EDGE('',*,*,#186,.T.);
#229=ORIENTED_EDGE('',*,*,#188,.F.);
#230=ORIENTED_EDGE('',*,*,#187,.T.);
#231=ORIENTED_EDGE('',*,*,#189,.F.);
#232=ORIENTED_EDGE('',*,*,#188,.T.);
#233=ORIENTED_EDGE('',*,*,#190,.F.);
#234=ORIENTED_EDGE('',*,*,#189,.T.);
#235=ORIENTED_EDGE('',*,*,#191,.F.);
#236=ORIENTED_EDGE('',*,*,#190,.T.);
#237=ORIENTED_EDGE('',*,*,#192,.F.);
#238=ORIENTED_EDGE('',*,*,#191,.T.);
#239=ORIENTED_EDGE('',*,*,#193,.F.);
#240=ORIENTED_EDGE('',*,*,#192,.T.);
#241=ORIENTED_EDGE('',*,*,#194,.F.);
#242=ORIENTED_EDGE('',*,*,#193,.T.);
#243=ORIENTED_EDGE('',*,*,#195,.F.);
#244=ORIENTED_EDGE('',*,*,#194,.T.);
#245=ORIENTED_EDGE('',*,*,#196,.F.);
#246=ORIENTED_EDGE('',*,*,#195,.T.);
#247=ORIENTED_EDGE('',*,*,#171,.F.);
#248=ORIENTED_EDGE('',*,*,#196,.T.);
#249=EDGE_LOOP('',(#197));
#250=EDGE_LOOP('',(#198));
#251=EDGE_LOOP('',(#199));
#252=EDGE_LOOP('',(#200));
#253=EDGE_LOOP('',(#201));
#254=EDGE_LOOP('',(#202));
#255=EDGE_LOOP('',(#203));
#256=EDGE_LOOP('',(#204));
#257=EDGE_LOOP('',(#205));
#258=EDGE_LOOP('',(#206));
#259=EDGE_LOOP('',(#207));
#260=EDGE_LOOP('',(#208));
#261=EDGE_LOOP('',(#209));
#262=EDGE_LOOP('',(#210));
#263=EDGE_LOOP('',(#211));
#264=EDGE_LOOP('',(#212));
#265=EDGE_LOOP('',(#213));
#266=EDGE_LOOP('',(#214));
#267=EDGE_LOOP('',(#215));
#268=EDGE_LOOP('',(#216));
#269=EDGE_LOOP('',(#217));
#270=EDGE_LOOP('',(#218));
#271=EDGE_LOOP('',(#219));
#272=EDGE_LOOP('',(#220));
#273=EDGE_LOOP('',(#221));
#274=EDGE_LOOP('',(#222));
#275=EDGE_LOOP('',(#223));
#276=EDGE_LOOP('',(#224));
#277=EDGE_LOOP('',(#225));
#278=EDGE_LOOP('',(#226));
#279=EDGE_LOOP('',(#227));
#280=EDGE_LOOP('',(#228));
#281=EDGE_LOOP('',(#229));
#282=EDGE_LOOP('',(#230));
#283=EDGE_LOOP('',(#231));
#284=EDGE_LOOP('',(#232));
#285=EDGE_LOOP('',(#233));
#286=EDGE_LOOP('',(#234));
#287=EDGE_LOOP('',(#235));
#288=EDGE_LOOP('',(#236));
#289=EDGE_LOOP('',(#237));
#290=EDGE_LOOP('',(#238));
#291=EDGE_LOOP('',(#239));
#292=EDGE_LOOP('',(#240));
#293=EDGE_LOOP('',(#241));
#294=EDGE_LOOP('',(#242));
#295=EDGE_LOOP('',(#243));
#296=EDGE_LOOP('',(#244));
#297=EDGE_LOOP('',(#245));
#298=EDGE_LOOP('',(#246));
#299=EDGE_LOOP('',(#247));
#300=EDGE_LOOP('',(#248));
#301=FACE_BOUND('',#249,.T.);
#302=FACE_BOUND('',#250,.T.);
#303=FACE_BOUND('',#251,.T.);
#304=FACE_BOUND('',#252,.T.);
#305=FACE_BOUND('',#253,.T.);
#306=FACE_BOUND('',#254,.T.);
#307=FACE_BOUND('',#255,.T.);
#308=FACE_BOUND('',#256,.T.);
#309=FACE_BOUND('',#257,.T.);
#310=FACE_BOUND('',#258,.T.);
#311=FACE_BOUND('',#259,.T.);
#312=FACE_BOUND('',#260,.T.);
#313=FACE_BOUND('',#261,.T.);
#314=FACE_BOUND('',#262,.T.);
#315=FACE_BOUND('',#263,.T.);
#316=FACE_BOUND('',#264,.T.);
#317=FACE_BOUND('',#265,.T.);
#318=FACE_BOUND('',#266,.T.);
#319=FACE_BOUND('',#267,.T.);
#320=FACE_BOUND('',#268,.T.);
#321=FACE_BOUND('',#269,.T.);
#322=FACE_BOUND('',#270,.T.);
#323=FACE_BOUND('',#271,.T.);
#324=FACE_BOUND('',#272,.T.);
#325=FACE_BOUND('',#273,.T.);
#326=FACE_BOUND('',#274,.T.);
#327=FACE_BOUND('',#275,.T.);
#328=FACE_BOUND('',#276,.T.);
#329=FACE_BOUND('',#277,.T.);
#330=FACE_BOUND('',#278,.T.);
#331=FACE_BOUND('',#279,.T.);
#332=FACE_BOUND('',#280,.T.);
#333=FACE_BOUND('',#281,.T.);
#334=FACE_BOUND('',#282,.T.);
#335=FACE_BOUND('',#283,.T.);
#336=FACE_BOUND('',#284,.T.);
#337=FACE_BOUND('',#285,.T.);
#338=FACE_BOUND('',#286,.T.);
#339=FACE_BOUND('',#287,.T.);
#340=FACE_BOUND('',#288,.T.);
#341=FACE_BOUND('',#289,.T.);
#342=FACE_BOUND('',#290,.T.);
#343=FACE_BOUND('',#291,.T.);
#344=FACE_BOUND('',#292,.T.);
#345=FACE_BOUND('',#293,.T.);
#346=FACE_BOUND('',#294,.T.);
#347=FACE_BOUND('',#295,.T.);
#348=FACE_BOUND('',#296,.T.);
#349=FACE_BOUND('',#297,.T.);
#350=FACE_BOUND('',#298,.T.);
#351=FACE_BOUND('',#299,.T.);
#352=FACE_BOUND('',#300,.T.);
#353=ADVANCED_FACE('',(#301,#302),#607,.F.);
#354=ADVANCED_FACE('',(#303,#304),#110,.F.);
#355=ADVANCED_FACE('',(#305,#306),#608,.F.);
#356=ADVANCED_FACE('',(#307,#308),#609,.F.);
#357=ADVANCED_FACE('',(#309,#310),#111,.F.);
#358=ADVANCED_FACE('',(#311,#312),#610,.F.);
#359=ADVANCED_FACE('',(#313,#314),#611,.F.);
#360=ADVANCED_FACE('',(#315,#316),#112,.F.);
#361=ADVANCED_FACE('',(#317,#318),#612,.F.);
#362=ADVANCED_FACE('',(#319,#320),#613,.F.);
#363=ADVANCED_FACE('',(#321,#322),#113,.F.);
#364=ADVANCED_FACE('',(#323,#324),#614,.F.);
#365=ADVANCED_FACE('',(#325,#326),#104,.T.);
#366=ADVANCED_FACE('',(#327,#328),#114,.F.);
#367=ADVANCED_FACE('',(#329,#330),#105,.T.);
#368=ADVANCED_FACE('',(#331,#332),#115,.F.);
#369=ADVANCED_FACE('',(#333,#334),#106,.T.);
#370=ADVANCED_FACE('',(#335,#336),#615,.T.);
#371=ADVANCED_FACE('',(#337,#338),#116,.T.);
#372=ADVANCED_FACE('',(#339,#340),#107,.T.);
#373=ADVANCED_FACE('',(#341,#342),#117,.T.);
#374=ADVANCED_FACE('',(#343,#344),#108,.T.);
#375=ADVANCED_FACE('',(#345,#346),#616,.T.);
#376=ADVANCED_FACE('',(#347,#348),#118,.T.);
#377=ADVANCED_FACE('',(#349,#350),#617,.T.);
#378=ADVANCED_FACE('',(#351,#352),#109,.T.);
#379=AXIS2_PLACEMENT_3D('',#431,#509,#510);
#380=AXIS2_PLACEMENT_3D('',#432,#511,#512);
#381=AXIS2_PLACEMENT_3D('',#434,#513,#514);
#382=AXIS2_PLACEMENT_3D('',#436,#515,#516);
#383=AXIS2_PLACEMENT_3D('',#437,#517,#518);
#384=AXIS2_PLACEMENT_3D('',#439,#519,#520);
#385=AXIS2_PLACEMENT_3D('',#440,#521,#522);
#386=AXIS2_PLACEMENT_3D('',#442,#523,#524);
#387=AXIS2_PLACEMENT_3D('',#443,#525,#526);
#388=AXIS2_PLACEMENT_3D('',#445,#527,#528);
#389=AXIS2_PLACEMENT_3D('',#446,#529,#530);
#390=AXIS2_PLACEMENT_3D('',#448,#531,#532);
#391=AXIS2_PLACEMENT_3D('',#449,#533,#534);
#392=AXIS2_PLACEMENT_3D('',#451,#535,#536);
#393=AXIS2_PLACEMENT_3D('',#452,#537,#538);
#394=AXIS2_PLACEMENT_3D('',#454,#539,#540);
#395=AXIS2_PLACEMENT_3D('',#455,#541,#542);
#396=AXIS2_PLACEMENT_3D('',#457,#543,#544);
#397=AXIS2_PLACEMENT_3D('',#458,#545,#546);
#398=AXIS2_PLACEMENT_3D('',#460,#547,#548);
#399=AXIS2_PLACEMENT_3D('',#461,#549,#550);
#400=AXIS2_PLACEMENT_3D('',#463,#551,#552);
#401=AXIS2_PLACEMENT_3D('',#464,#553,#554);
#402=AXIS2_PLACEMENT_3D('',#466,#555,#556);
#403=AXIS2_PLACEMENT_3D('',#467,#557,#558);
#404=AXIS2_PLACEMENT_3D('',#469,#559,$);
#405=AXIS2_PLACEMENT_3D('',#470,#560,#561);
#406=AXIS2_PLACEMENT_3D('',#472,#562,#563);
#407=AXIS2_PLACEMENT_3D('',#473,#564,#565);
#408=AXIS2_PLACEMENT_3D('',#475,#566,$);
#409=AXIS2_PLACEMENT_3D('',#476,#567,#568);
#410=AXIS2_PLACEMENT_3D('',#478,#569,#570);
#411=AXIS2_PLACEMENT_3D('',#479,#571,#572);
#412=AXIS2_PLACEMENT_3D('',#481,#573,$);
#413=AXIS2_PLACEMENT_3D('',#482,#574,#575);
#414=AXIS2_PLACEMENT_3D('',#484,#576,#577);
#415=AXIS2_PLACEMENT_3D('',#485,#578,#579);
#416=AXIS2_PLACEMENT_3D('',#487,#580,#581);
#417=AXIS2_PLACEMENT_3D('',#488,#582,#583);
#418=AXIS2_PLACEMENT_3D('',#490,#584,$);
#419=AXIS2_PLACEMENT_3D('',#491,#585,#586);
#420=AXIS2_PLACEMENT_3D('',#493,#587,#588);
#421=AXIS2_PLACEMENT_3D('',#494,#589,#590);
#422=AXIS2_PLACEMENT_3D('',#496,#591,$);
#423=AXIS2_PLACEMENT_3D('',#497,#592,#593);
#424=AXIS2_PLACEMENT_3D('',#499,#594,#595);
#425=AXIS2_PLACEMENT_3D('',#500,#596,#597);
#426=AXIS2_PLACEMENT_3D('',#502,#598,#599);
#427=AXIS2_PLACEMENT_3D('',#503,#600,#601);
#428=AXIS2_PLACEMENT_3D('',#505,#602,#603);
#429=AXIS2_PLACEMENT_3D('',#506,#604,#605);
#430=AXIS2_PLACEMENT_3D('',#508,#606,$);
#431=CARTESIAN_POINT('',(0.,0.,-0.493301270189257));
#432=CARTESIAN_POINT('',(0.,0.,0.199999999999998));
#433=CARTESIAN_POINT('',(0.,-10.1722695154586,0.199999999999998));
#434=CARTESIAN_POINT('',(0.,0.,-0.58660254037851));
#435=CARTESIAN_POINT('',(0.,-9.9615,-0.58660254037851));
#436=CARTESIAN_POINT('',(0.,0.,-1.75000000000003));
#437=CARTESIAN_POINT('',(0.,0.,-2.91339745962155));
#438=CARTESIAN_POINT('',(0.,-9.9615,-2.91339745962155));
#439=CARTESIAN_POINT('',(0.,0.,-3.25));
#440=CARTESIAN_POINT('',(0.,0.,-3.5));
#441=CARTESIAN_POINT('',(0.,-10.3001751345948,-3.5));
#442=CARTESIAN_POINT('',(0.,0.,-4.04330127018923));
#443=CARTESIAN_POINT('',(0.,0.,-4.08660254037845));
#444=CARTESIAN_POINT('',(0.,-9.9615,-4.08660254037845));
#445=CARTESIAN_POINT('',(0.,0.,-5.99999999999999));
#446=CARTESIAN_POINT('',(0.,0.,-7.91339745962154));
#447=CARTESIAN_POINT('',(0.,-9.9615,-7.91339745962154));
#448=CARTESIAN_POINT('',(0.,0.,-8.24999999999999));
#449=CARTESIAN_POINT('',(0.,0.,-8.5));
#450=CARTESIAN_POINT('',(0.,-10.3001751345948,-8.5));
#451=CARTESIAN_POINT('',(0.,0.,-9.04330127018921));
#452=CARTESIAN_POINT('',(0.,0.,-9.08660254037843));
#453=CARTESIAN_POINT('',(0.,-9.9615,-9.08660254037843));
#454=CARTESIAN_POINT('',(0.,0.,-11.));
#455=CARTESIAN_POINT('',(0.,0.,-12.9133974596215));
#456=CARTESIAN_POINT('',(0.,-9.9615,-12.9133974596215));
#457=CARTESIAN_POINT('',(0.,0.,-13.25));
#458=CARTESIAN_POINT('',(0.,0.,-13.5));
#459=CARTESIAN_POINT('',(0.,-10.3001751345948,-13.5));
#460=CARTESIAN_POINT('',(0.,0.,-14.0433012701892));
#461=CARTESIAN_POINT('',(0.,0.,-14.0866025403784));
#462=CARTESIAN_POINT('',(0.,-9.9615,-14.0866025403784));
#463=CARTESIAN_POINT('',(0.,0.,-14.75));
#464=CARTESIAN_POINT('',(0.,0.,-15.4133974596215));
#465=CARTESIAN_POINT('',(0.,-9.9615,-15.4133974596215));
#466=CARTESIAN_POINT('',(0.,0.,-15.75));
#467=CARTESIAN_POINT('',(0.,0.,-15.9));
#468=CARTESIAN_POINT('',(0.,-10.0918847577293,-15.9));
#469=CARTESIAN_POINT('',(0.,-10.4266923788647,-15.9));
#470=CARTESIAN_POINT('',(0.,0.,-15.9));
#471=CARTESIAN_POINT('',(0.,-10.7615,-15.9));
#472=CARTESIAN_POINT('',(0.,0.,-16.4499999999995));
#473=CARTESIAN_POINT('',(0.,0.,-16.999999999999));
#474=CARTESIAN_POINT('',(0.,-10.7615,-16.999999999999));
#475=CARTESIAN_POINT('',(0.,-10.3865,-16.999999999999));
#476=CARTESIAN_POINT('',(0.,0.,-16.999999999999));
#477=CARTESIAN_POINT('',(0.,-10.0115,-16.999999999999));
#478=CARTESIAN_POINT('',(0.,0.,-17.249999999999));
#479=CARTESIAN_POINT('',(0.,0.,-17.499999999999));
#480=CARTESIAN_POINT('',(0.,-10.0115,-17.499999999999));
#481=CARTESIAN_POINT('',(0.,-10.61825,-17.499999999999));
#482=CARTESIAN_POINT('',(0.,0.,-17.499999999999));
#483=CARTESIAN_POINT('',(0.,-11.225,-17.499999999999));
#484=CARTESIAN_POINT('',(0.,0.,-17.399999999999));
#485=CARTESIAN_POINT('',(0.,0.,-17.299999999999));
#486=CARTESIAN_POINT('',(0.,-11.425,-17.299999999999));
#487=CARTESIAN_POINT('',(0.,0.,-12.659999999999));
#488=CARTESIAN_POINT('',(0.,0.,-8.01999999999896));
#489=CARTESIAN_POINT('',(0.,-11.425,-8.01999999999896));
#490=CARTESIAN_POINT('',(0.,-11.4,-8.01999999999896));
#491=CARTESIAN_POINT('',(0.,0.,-8.01999999999896));
#492=CARTESIAN_POINT('',(0.,-11.375,-8.01999999999896));
#493=CARTESIAN_POINT('',(0.,0.,-7.76999999999896));
#494=CARTESIAN_POINT('',(0.,0.,-7.51999999999896));
#495=CARTESIAN_POINT('',(0.,-11.375,-7.51999999999896));
#496=CARTESIAN_POINT('',(0.,-11.45,-7.51999999999896));
#497=CARTESIAN_POINT('',(0.,0.,-7.51999999999896));
#498=CARTESIAN_POINT('',(0.,-11.525,-7.51999999999896));
#499=CARTESIAN_POINT('',(0.,0.,-7.46999999999896));
#500=CARTESIAN_POINT('',(0.,0.,-7.41999999999896));
#501=CARTESIAN_POINT('',(0.,-11.625,-7.41999999999896));
#502=CARTESIAN_POINT('',(0.,0.,-3.90999999999944));
#503=CARTESIAN_POINT('',(0.,0.,-0.399999999999931));
#504=CARTESIAN_POINT('',(0.,-11.625,-0.399999999999931));
#505=CARTESIAN_POINT('',(0.,0.,-0.0999999999999665));
#506=CARTESIAN_POINT('',(0.,0.,0.199999999999998));
#507=CARTESIAN_POINT('',(0.,-11.0250000000001,0.199999999999998));
#508=CARTESIAN_POINT('',(0.,-10.5986347577293,0.199999999999998));
#509=DIRECTION('',(0.,0.,1.));
#510=DIRECTION('',(0.,-9.9865,0.));
#511=DIRECTION('',(0.,0.,1.));
#512=DIRECTION('',(0.,-10.1722695154586,0.));
#513=DIRECTION('',(0.,0.,1.));
#514=DIRECTION('',(0.,-9.9615,0.));
#515=DIRECTION('',(0.,0.,1.));
#516=DIRECTION('',(0.,-9.9615,0.));
#517=DIRECTION('',(0.,0.,1.));
#518=DIRECTION('',(0.,-9.9615,0.));
#519=DIRECTION('',(0.,0.,-1.));
#520=DIRECTION('',(0.,-10.1558375672974,0.));
#521=DIRECTION('',(0.,0.,1.));
#522=DIRECTION('',(0.,-10.3001751345948,0.));
#523=DIRECTION('',(0.,0.,1.));
#524=DIRECTION('',(0.,-9.9865,0.));
#525=DIRECTION('',(0.,0.,1.));
#526=DIRECTION('',(0.,-9.9615,0.));
#527=DIRECTION('',(0.,0.,1.));
#528=DIRECTION('',(0.,-9.9615,0.));
#529=DIRECTION('',(0.,0.,1.));
#530=DIRECTION('',(0.,-9.9615,0.));
#531=DIRECTION('',(0.,0.,-1.));
#532=DIRECTION('',(0.,-10.1558375672974,0.));
#533=DIRECTION('',(0.,0.,1.));
#534=DIRECTION('',(0.,-10.3001751345948,0.));
#535=DIRECTION('',(0.,0.,1.));
#536=DIRECTION('',(0.,-9.9865,0.));
#537=DIRECTION('',(0.,0.,1.));
#538=DIRECTION('',(0.,-9.9615,0.));
#539=DIRECTION('',(0.,0.,1.));
#540=DIRECTION('',(0.,-9.9615,0.));
#541=DIRECTION('',(0.,0.,1.));
#542=DIRECTION('',(0.,-9.9615,0.));
#543=DIRECTION('',(0.,0.,-1.));
#544=DIRECTION('',(0.,-10.1558375672974,0.));
#545=DIRECTION('',(0.,0.,1.));
#546=DIRECTION('',(0.,-10.3001751345948,0.));
#547=DIRECTION('',(0.,0.,1.));
#548=DIRECTION('',(0.,-9.9865,0.));
#549=DIRECTION('',(0.,0.,1.));
#550=DIRECTION('',(0.,-9.9615,0.));
#551=DIRECTION('',(0.,0.,1.));
#552=DIRECTION('',(0.,-9.9615,0.));
#553=DIRECTION('',(0.,0.,1.));
#554=DIRECTION('',(0.,-9.9615,0.));
#555=DIRECTION('',(0.,0.,-1.));
#556=DIRECTION('',(0.,-10.0516923788647,0.));
#557=DIRECTION('',(0.,0.,1.));
#558=DIRECTION('',(0.,-10.0918847577293,0.));
#559=DIRECTION('',(0.,0.,-1.));
#560=DIRECTION('',(0.,0.,1.));
#561=DIRECTION('',(0.,-10.7615,0.));
#562=DIRECTION('',(0.,0.,1.));
#563=DIRECTION('',(0.,-10.7615,0.));
#564=DIRECTION('',(0.,0.,1.));
#565=DIRECTION('',(0.,-10.7615,0.));
#566=DIRECTION('',(0.,0.,1.));
#567=DIRECTION('',(0.,0.,1.));
#568=DIRECTION('',(0.,-10.0115,0.));
#569=DIRECTION('',(0.,0.,1.));
#570=DIRECTION('',(0.,-10.0115,0.));
#571=DIRECTION('',(0.,0.,1.));
#572=DIRECTION('',(0.,-10.0115,0.));
#573=DIRECTION('',(0.,-3.51319028805979E-14,-1.));
#574=DIRECTION('',(0.,0.,1.));
#575=DIRECTION('',(0.,-11.225,0.));
#576=DIRECTION('',(0.,0.,1.));
#577=DIRECTION('',(0.,-11.325,0.));
#578=DIRECTION('',(0.,0.,1.));
#579=DIRECTION('',(0.,-11.425,0.));
#580=DIRECTION('',(0.,0.,1.));
#581=DIRECTION('',(0.,-11.425,0.));
#582=DIRECTION('',(0.,0.,1.));
#583=DIRECTION('',(0.,-11.425,0.));
#584=DIRECTION('',(0.,3.55271367880007E-14,1.));
#585=DIRECTION('',(0.,0.,1.));
#586=DIRECTION('',(0.,-11.375,0.));
#587=DIRECTION('',(0.,0.,1.));
#588=DIRECTION('',(0.,-11.375,0.));
#589=DIRECTION('',(0.,0.,1.));
#590=DIRECTION('',(0.,-11.375,0.));
#591=DIRECTION('',(0.,0.,-1.));
#592=DIRECTION('',(0.,0.,1.));
#593=DIRECTION('',(0.,-11.525,0.));
#594=DIRECTION('',(0.,0.,1.));
#595=DIRECTION('',(0.,-11.575,0.));
#596=DIRECTION('',(0.,0.,1.));
#597=DIRECTION('',(0.,-11.625,0.));
#598=DIRECTION('',(0.,0.,1.));
#599=DIRECTION('',(0.,-11.625,0.));
#600=DIRECTION('',(0.,0.,1.));
#601=DIRECTION('',(0.,-11.625,0.));
#602=DIRECTION('',(0.,0.,-1.));
#603=DIRECTION('',(0.,-11.325,0.));
#604=DIRECTION('',(0.,0.,1.));
#605=DIRECTION('',(0.,-11.0250000000001,0.));
#606=DIRECTION('',(0.,-6.50981197899911E-17,1.));
#607=CONICAL_SURFACE('',#379,9.9865,0.261799387799069);
#608=CONICAL_SURFACE('',#384,10.1558375672974,0.52359877559828);
#609=CONICAL_SURFACE('',#386,9.9865,0.523598775598276);
#610=CONICAL_SURFACE('',#390,10.1558375672974,0.523598775598272);
#611=CONICAL_SURFACE('',#392,9.9865,0.523598775598325);
#612=CONICAL_SURFACE('',#396,10.1558375672974,0.52359877559828);
#613=CONICAL_SURFACE('',#398,9.9865,0.52359877559852);
#614=CONICAL_SURFACE('',#402,10.0516923788647,0.261799387799035);
#615=CONICAL_SURFACE('',#414,11.325,0.785398163397444);
#616=CONICAL_SURFACE('',#424,11.575,0.785398163397439);
#617=CONICAL_SURFACE('',#428,11.325,0.785398163397448);
#618=CLOSED_SHELL('',(#353,#354,#355,#356,#357,#358,#359,#360,#361,#362,
#363,#364,#365,#366,#367,#368,#369,#370,#371,#372,#373,#374,#375,#376,#377,
#378));
#619=MANIFOLD_SOLID_BREP('',#618);
#620=ADVANCED_BREP_SHAPE_REPRESENTATION('',(#619),#103);
ENDSEC;
END-ISO-10303-21;
