ISO-10303-21;
HEADER;
/* Generated by software containing ST-Developer
 * from STEP Tools, Inc. (www.steptools.com) 
 */

FILE_DESCRIPTION(
/* description */ ('Alibre Inc.'),
/* implementation_level */ '2;1');

FILE_NAME(
/* name */ 'export-9BC056D9-9FA9-49DF-B22D-BC900CB1A32A',
/* time_stamp */ '2025-04-15T06:48:36+08:00',
/* author */ (''),
/* organization */ (''),
/* preprocessor_version */ 'ST-DEVELOPER v17',
/* originating_system */ 'Alibre',
/* authorisation */ '');

FILE_SCHEMA (('CONFIG_CONTROL_DESIGN'));
ENDSEC;

DATA;
#10=MECHANICAL_CONTEXT('detailed design',#18,'mechanical');
#11=PRODUCT_RELATED_PRODUCT_CATEGORY('detail','',(#98));
#12=CC_DESIGN_SECURITY_CLASSIFICATION(#14,(#97));
#13=SECURITY_CLASSIFICATION_LEVEL('unclassified');
#14=SECURITY_CLASSIFICATION('name','Security for version',#13);
#15=SHAPE_DEFINITION_REPRESENTATION(#16,#301);
#16=PRODUCT_DEFINITION_SHAPE('','DefinitionDesc',#96);
#17=APPLICATION_PROTOCOL_DEFINITION('AP definition status',
'config_control_design',1994,#18);
#18=APPLICATION_CONTEXT(
'control the configuration of three dimensional design');
#19=DESIGN_CONTEXT('detailed design',#18,'design');
#20=PERSON_AND_ORGANIZATION_ROLE('creator');
#21=PERSON_AND_ORGANIZATION_ROLE('classification_officer');
#22=PERSON_AND_ORGANIZATION_ROLE('creator');
#23=PERSON_AND_ORGANIZATION_ROLE('design_supplier');
#24=PERSON_AND_ORGANIZATION_ROLE('design_owner');
#25=CC_DESIGN_PERSON_AND_ORGANIZATION_ASSIGNMENT(#57,#20,(#96));
#26=CC_DESIGN_PERSON_AND_ORGANIZATION_ASSIGNMENT(#60,#21,(#14));
#27=CC_DESIGN_PERSON_AND_ORGANIZATION_ASSIGNMENT(#61,#22,(#97));
#28=CC_DESIGN_PERSON_AND_ORGANIZATION_ASSIGNMENT(#62,#23,(#97));
#29=CC_DESIGN_PERSON_AND_ORGANIZATION_ASSIGNMENT(#63,#24,(#98));
#30=DATE_TIME_ROLE('creation_date');
#31=DATE_TIME_ROLE('classification_date');
#32=CC_DESIGN_DATE_AND_TIME_ASSIGNMENT(#86,#30,(#96));
#33=CC_DESIGN_DATE_AND_TIME_ASSIGNMENT(#89,#31,(#14));
#34=CC_DESIGN_APPROVAL(#93,(#96));
#35=CC_DESIGN_APPROVAL(#94,(#97));
#36=CC_DESIGN_APPROVAL(#95,(#14));
#37=APPROVAL_PERSON_ORGANIZATION(#56,#93,#64);
#38=APPROVAL_PERSON_ORGANIZATION(#58,#94,#65);
#39=APPROVAL_PERSON_ORGANIZATION(#59,#95,#66);
#40=ORGANIZATION('DEFINITION_APPROVEDBY_ORG_ID',
'DEFINITION_APPROVEDBY_ORG_NAME','DEFINITION_APPROVEDBY_ORG_DESCR');
#41=ORGANIZATION('DEF_CREATOR_ORG_ID','DEF_CREATOR_ORG_NAME',
'DEF_CREATOR_ORG_DESCR');
#42=ORGANIZATION('APPROVEDBY_ORG_ID','APPROVEDBY_ORG_NAME',
'APPROVEDBY_ORG_DESCR');
#43=ORGANIZATION('SECURITY_APPROVEDBY_ORG_ID',
'SECURITY_APPROVEDBY_ORG_NAME','SECURITY_APPROVEDBY_ORG_DESCR');
#44=ORGANIZATION('CLASSOFFICER_ORG_ID','CLASSOFFICER_ORG_NAME',
'CLASSOFFICER_ORG_DESCR');
#45=ORGANIZATION('CREATOR_ORG_ID','CREATOR_ORG_NAME',
'CREATOR_ORG_DESCR');
#46=ORGANIZATION('SUPPLIER_ORG_ID','SUPPLIER_ORG_NAME',
'SUPPLIER_ORG_DESCR');
#47=ORGANIZATION('OWNER_ORG_ID','OWNER_ORG_NAME','OWNER_ORG_DESCR');
#48=PERSON('DEFINITION_approverID','DEFINITION_APPROVEDBY_LASTNAME',
'DEFINITION_APPROVEDBY_FIRSTNAME',$,$,$);
#49=PERSON('DEF_createrID','DEF_CREATOR_LASTNAME',
'DEF_CREATOR_FIRSTNAME',$,$,$);
#50=PERSON('approverID','APPROVEDBY_LASTNAME','APPROVEDBY_FIRSTNAME',$,
$,$);
#51=PERSON('SECURITY_approverID','SECURITY_LASTNAME',
'SECURITY_APPROVEDBY_FIRSTNAME',$,$,$);
#52=PERSON('classifierID','CLASSOFFICER_LASTNAME',
'CLASSOFFICER_FIRSTNAME',$,$,$);
#53=PERSON('createrID','CREATOR_LASTNAME','CREATOR_FIRSTNAME',$,$,$);
#54=PERSON('supplierID','SUPPLIER_LASTNAME','SUPPLIER_FIRSTNAME',$,$,$);
#55=PERSON('ownerID','OWNER_LASTNAME','OWNER_FIRSTNAME',$,$,$);
#56=PERSON_AND_ORGANIZATION(#48,#40);
#57=PERSON_AND_ORGANIZATION(#49,#41);
#58=PERSON_AND_ORGANIZATION(#50,#42);
#59=PERSON_AND_ORGANIZATION(#51,#43);
#60=PERSON_AND_ORGANIZATION(#52,#44);
#61=PERSON_AND_ORGANIZATION(#53,#45);
#62=PERSON_AND_ORGANIZATION(#54,#46);
#63=PERSON_AND_ORGANIZATION(#55,#47);
#64=APPROVAL_ROLE('definition_approval');
#65=APPROVAL_ROLE('version_approval');
#66=APPROVAL_ROLE('security_approval');
#67=APPROVAL_DATE_TIME(#85,#93);
#68=APPROVAL_DATE_TIME(#87,#94);
#69=APPROVAL_DATE_TIME(#88,#95);
#70=COORDINATED_UNIVERSAL_TIME_OFFSET(8,0,.AHEAD.);
#71=COORDINATED_UNIVERSAL_TIME_OFFSET(8,0,.AHEAD.);
#72=COORDINATED_UNIVERSAL_TIME_OFFSET(8,0,.AHEAD.);
#73=COORDINATED_UNIVERSAL_TIME_OFFSET(8,0,.AHEAD.);
#74=COORDINATED_UNIVERSAL_TIME_OFFSET(8,0,.AHEAD.);
#75=LOCAL_TIME(17,13,57.,#70);
#76=LOCAL_TIME(17,13,57.,#71);
#77=LOCAL_TIME(17,13,57.,#72);
#78=LOCAL_TIME(17,13,57.,#73);
#79=LOCAL_TIME(17,13,57.,#74);
#80=CALENDAR_DATE(2025,27,3);
#81=CALENDAR_DATE(2025,27,3);
#82=CALENDAR_DATE(2025,27,3);
#83=CALENDAR_DATE(2025,27,3);
#84=CALENDAR_DATE(2025,27,3);
#85=DATE_AND_TIME(#80,#75);
#86=DATE_AND_TIME(#81,#76);
#87=DATE_AND_TIME(#82,#77);
#88=DATE_AND_TIME(#83,#78);
#89=DATE_AND_TIME(#84,#79);
#90=APPROVAL_STATUS('not_yet_approved');
#91=APPROVAL_STATUS('not_yet_approved');
#92=APPROVAL_STATUS('not_yet_approved');
#93=APPROVAL(#90,'defintion approval');
#94=APPROVAL(#91,'version approval');
#95=APPROVAL(#92,'security approval');
#96=PRODUCT_DEFINITION('DefinitionID','DefinitionDesc',#97,#19);
#97=PRODUCT_DEFINITION_FORMATION_WITH_SPECIFIED_SOURCE(
'PRODUCT_VERSION_ID','PRODUCT_VERSION_DESCR',#98,.NOT_KNOWN.);
#98=PRODUCT('','2500','',(#10));
#99=(
LENGTH_UNIT()
NAMED_UNIT(*)
SI_UNIT(.CENTI.,.METRE.)
);
#100=(
NAMED_UNIT(*)
PLANE_ANGLE_UNIT()
SI_UNIT($,.RADIAN.)
);
#101=(
NAMED_UNIT(*)
SI_UNIT($,.STERADIAN.)
SOLID_ANGLE_UNIT()
);
#102=UNCERTAINTY_MEASURE_WITH_UNIT(LENGTH_MEASURE(1.E-6),#99,
'DISTANCE_ACCURACY_VALUE',
'Maximum model space distance between geometric entities at asserted c
onnectivities');
#103=(
GEOMETRIC_REPRESENTATION_CONTEXT(3)
GLOBAL_UNCERTAINTY_ASSIGNED_CONTEXT((#102))
GLOBAL_UNIT_ASSIGNED_CONTEXT((#101,#100,#99))
REPRESENTATION_CONTEXT('ID1','3D')
);
#104=PLANE('',#212);
#105=PLANE('',#216);
#106=PLANE('',#220);
#107=PLANE('',#224);
#108=PLANE('',#228);
#109=VERTEX_POINT('',#266);
#110=VERTEX_POINT('',#268);
#111=VERTEX_POINT('',#271);
#112=VERTEX_POINT('',#274);
#113=VERTEX_POINT('',#277);
#114=VERTEX_POINT('',#280);
#115=VERTEX_POINT('',#283);
#116=VERTEX_POINT('',#286);
#117=VERTEX_POINT('',#289);
#118=VERTEX_POINT('',#292);
#119=CIRCLE('',#210,9.491);
#120=CIRCLE('',#211,9.491);
#121=CIRCLE('',#213,7.8015);
#122=CIRCLE('',#215,7.8015);
#123=CIRCLE('',#217,10.75);
#124=CIRCLE('',#219,10.75);
#125=CIRCLE('',#221,16.5);
#126=CIRCLE('',#223,16.5);
#127=CIRCLE('',#225,11.985);
#128=CIRCLE('',#227,11.985);
#129=EDGE_CURVE('',#109,#109,#119,.T.);
#130=EDGE_CURVE('',#110,#110,#120,.T.);
#131=EDGE_CURVE('',#111,#111,#121,.T.);
#132=EDGE_CURVE('',#112,#112,#122,.T.);
#133=EDGE_CURVE('',#113,#113,#123,.T.);
#134=EDGE_CURVE('',#114,#114,#124,.T.);
#135=EDGE_CURVE('',#115,#115,#125,.T.);
#136=EDGE_CURVE('',#116,#116,#126,.T.);
#137=EDGE_CURVE('',#117,#117,#127,.T.);
#138=EDGE_CURVE('',#118,#118,#128,.T.);
#139=ORIENTED_EDGE('',*,*,#129,.F.);
#140=ORIENTED_EDGE('',*,*,#130,.F.);
#141=ORIENTED_EDGE('',*,*,#131,.F.);
#142=ORIENTED_EDGE('',*,*,#129,.T.);
#143=ORIENTED_EDGE('',*,*,#131,.T.);
#144=ORIENTED_EDGE('',*,*,#132,.F.);
#145=ORIENTED_EDGE('',*,*,#133,.F.);
#146=ORIENTED_EDGE('',*,*,#132,.T.);
#147=ORIENTED_EDGE('',*,*,#134,.F.);
#148=ORIENTED_EDGE('',*,*,#133,.T.);
#149=ORIENTED_EDGE('',*,*,#135,.F.);
#150=ORIENTED_EDGE('',*,*,#134,.T.);
#151=ORIENTED_EDGE('',*,*,#136,.F.);
#152=ORIENTED_EDGE('',*,*,#135,.T.);
#153=ORIENTED_EDGE('',*,*,#137,.F.);
#154=ORIENTED_EDGE('',*,*,#136,.T.);
#155=ORIENTED_EDGE('',*,*,#138,.F.);
#156=ORIENTED_EDGE('',*,*,#137,.T.);
#157=ORIENTED_EDGE('',*,*,#130,.T.);
#158=ORIENTED_EDGE('',*,*,#138,.T.);
#159=EDGE_LOOP('',(#139));
#160=EDGE_LOOP('',(#140));
#161=EDGE_LOOP('',(#141));
#162=EDGE_LOOP('',(#142));
#163=EDGE_LOOP('',(#143));
#164=EDGE_LOOP('',(#144));
#165=EDGE_LOOP('',(#145));
#166=EDGE_LOOP('',(#146));
#167=EDGE_LOOP('',(#147));
#168=EDGE_LOOP('',(#148));
#169=EDGE_LOOP('',(#149));
#170=EDGE_LOOP('',(#150));
#171=EDGE_LOOP('',(#151));
#172=EDGE_LOOP('',(#152));
#173=EDGE_LOOP('',(#153));
#174=EDGE_LOOP('',(#154));
#175=EDGE_LOOP('',(#155));
#176=EDGE_LOOP('',(#156));
#177=EDGE_LOOP('',(#157));
#178=EDGE_LOOP('',(#158));
#179=FACE_BOUND('',#159,.T.);
#180=FACE_BOUND('',#160,.T.);
#181=FACE_BOUND('',#161,.T.);
#182=FACE_BOUND('',#162,.T.);
#183=FACE_BOUND('',#163,.T.);
#184=FACE_BOUND('',#164,.T.);
#185=FACE_BOUND('',#165,.T.);
#186=FACE_BOUND('',#166,.T.);
#187=FACE_BOUND('',#167,.T.);
#188=FACE_BOUND('',#168,.T.);
#189=FACE_BOUND('',#169,.T.);
#190=FACE_BOUND('',#170,.T.);
#191=FACE_BOUND('',#171,.T.);
#192=FACE_BOUND('',#172,.T.);
#193=FACE_BOUND('',#173,.T.);
#194=FACE_BOUND('',#174,.T.);
#195=FACE_BOUND('',#175,.T.);
#196=FACE_BOUND('',#176,.T.);
#197=FACE_BOUND('',#177,.T.);
#198=FACE_BOUND('',#178,.T.);
#199=ADVANCED_FACE('',(#179,#180),#294,.F.);
#200=ADVANCED_FACE('',(#181,#182),#104,.T.);
#201=ADVANCED_FACE('',(#183,#184),#295,.F.);
#202=ADVANCED_FACE('',(#185,#186),#105,.T.);
#203=ADVANCED_FACE('',(#187,#188),#296,.T.);
#204=ADVANCED_FACE('',(#189,#190),#106,.T.);
#205=ADVANCED_FACE('',(#191,#192),#297,.T.);
#206=ADVANCED_FACE('',(#193,#194),#107,.T.);
#207=ADVANCED_FACE('',(#195,#196),#298,.T.);
#208=ADVANCED_FACE('',(#197,#198),#108,.T.);
#209=AXIS2_PLACEMENT_3D('',#264,#229,#230);
#210=AXIS2_PLACEMENT_3D('',#265,#231,#232);
#211=AXIS2_PLACEMENT_3D('',#267,#233,#234);
#212=AXIS2_PLACEMENT_3D('',#269,#235,$);
#213=AXIS2_PLACEMENT_3D('',#270,#236,#237);
#214=AXIS2_PLACEMENT_3D('',#272,#238,#239);
#215=AXIS2_PLACEMENT_3D('',#273,#240,#241);
#216=AXIS2_PLACEMENT_3D('',#275,#242,$);
#217=AXIS2_PLACEMENT_3D('',#276,#243,#244);
#218=AXIS2_PLACEMENT_3D('',#278,#245,#246);
#219=AXIS2_PLACEMENT_3D('',#279,#247,#248);
#220=AXIS2_PLACEMENT_3D('',#281,#249,$);
#221=AXIS2_PLACEMENT_3D('',#282,#250,#251);
#222=AXIS2_PLACEMENT_3D('',#284,#252,#253);
#223=AXIS2_PLACEMENT_3D('',#285,#254,#255);
#224=AXIS2_PLACEMENT_3D('',#287,#256,$);
#225=AXIS2_PLACEMENT_3D('',#288,#257,#258);
#226=AXIS2_PLACEMENT_3D('',#290,#259,#260);
#227=AXIS2_PLACEMENT_3D('',#291,#261,#262);
#228=AXIS2_PLACEMENT_3D('',#293,#263,$);
#229=DIRECTION('',(0.,0.,-1.));
#230=DIRECTION('',(9.491,0.,0.));
#231=DIRECTION('',(0.,0.,1.));
#232=DIRECTION('',(9.491,0.,0.));
#233=DIRECTION('',(0.,0.,-1.));
#234=DIRECTION('',(9.491,0.,0.));
#235=DIRECTION('',(0.,0.,1.));
#236=DIRECTION('',(0.,0.,1.));
#237=DIRECTION('',(0.,7.8015,0.));
#238=DIRECTION('',(0.,0.,1.));
#239=DIRECTION('',(0.,7.8015,0.));
#240=DIRECTION('',(0.,0.,1.));
#241=DIRECTION('',(0.,7.8015,0.));
#242=DIRECTION('',(0.,0.,-1.));
#243=DIRECTION('',(0.,0.,1.));
#244=DIRECTION('',(0.,10.75,0.));
#245=DIRECTION('',(0.,0.,1.));
#246=DIRECTION('',(0.,10.75,0.));
#247=DIRECTION('',(0.,0.,1.));
#248=DIRECTION('',(0.,10.75,0.));
#249=DIRECTION('',(0.,0.,-1.));
#250=DIRECTION('',(0.,0.,1.));
#251=DIRECTION('',(0.,16.5,0.));
#252=DIRECTION('',(0.,0.,1.));
#253=DIRECTION('',(0.,16.5,0.));
#254=DIRECTION('',(0.,0.,1.));
#255=DIRECTION('',(0.,16.5,0.));
#256=DIRECTION('',(0.,0.,1.));
#257=DIRECTION('',(0.,0.,1.));
#258=DIRECTION('',(0.,11.985,0.));
#259=DIRECTION('',(0.,0.,1.));
#260=DIRECTION('',(0.,11.985,0.));
#261=DIRECTION('',(0.,0.,1.));
#262=DIRECTION('',(0.,11.985,0.));
#263=DIRECTION('',(0.,0.,1.));
#264=CARTESIAN_POINT('',(0.,0.,0.));
#265=CARTESIAN_POINT('',(0.,0.,-12.8));
#266=CARTESIAN_POINT('',(9.491,0.,-12.8));
#267=CARTESIAN_POINT('',(0.,0.,0.));
#268=CARTESIAN_POINT('',(9.491,0.,0.));
#269=CARTESIAN_POINT('',(0.,0.,-12.8));
#270=CARTESIAN_POINT('',(0.,0.,-12.8));
#271=CARTESIAN_POINT('',(9.55408200354807E-16,-7.8015,-12.8));
#272=CARTESIAN_POINT('',(0.,0.,-13.));
#273=CARTESIAN_POINT('',(0.,0.,-13.5));
#274=CARTESIAN_POINT('',(0.,7.8015,-13.5));
#275=CARTESIAN_POINT('',(0.,9.27575,-13.5));
#276=CARTESIAN_POINT('',(0.,0.,-13.5));
#277=CARTESIAN_POINT('',(0.,10.75,-13.5));
#278=CARTESIAN_POINT('',(0.,0.,-9.5));
#279=CARTESIAN_POINT('',(0.,0.,-5.5));
#280=CARTESIAN_POINT('',(0.,10.75,-5.5));
#281=CARTESIAN_POINT('',(0.,13.625,-5.5));
#282=CARTESIAN_POINT('',(0.,0.,-5.5));
#283=CARTESIAN_POINT('',(0.,16.5,-5.5));
#284=CARTESIAN_POINT('',(0.,0.,-3.25));
#285=CARTESIAN_POINT('',(0.,0.,-1.));
#286=CARTESIAN_POINT('',(0.,16.5,-1.));
#287=CARTESIAN_POINT('',(0.,14.2425,-1.));
#288=CARTESIAN_POINT('',(0.,0.,-1.));
#289=CARTESIAN_POINT('',(0.,11.985,-1.));
#290=CARTESIAN_POINT('',(0.,0.,-0.5));
#291=CARTESIAN_POINT('',(0.,0.,0.));
#292=CARTESIAN_POINT('',(0.,11.985,0.));
#293=CARTESIAN_POINT('',(0.,9.86825,0.));
#294=CYLINDRICAL_SURFACE('',#209,9.491);
#295=CYLINDRICAL_SURFACE('',#214,7.8015);
#296=CYLINDRICAL_SURFACE('',#218,10.75);
#297=CYLINDRICAL_SURFACE('',#222,16.5);
#298=CYLINDRICAL_SURFACE('',#226,11.985);
#299=CLOSED_SHELL('',(#199,#200,#201,#202,#203,#204,#205,#206,#207,#208));
#300=MANIFOLD_SOLID_BREP('',#299);
#301=ADVANCED_BREP_SHAPE_REPRESENTATION('',(#300),#103);
ENDSEC;
END-ISO-10303-21;
