ISO-10303-21;
HEADER;
/* Generated by software containing ST-Developer
 * from STEP Tools, Inc. (www.steptools.com) 
 */

FILE_DESCRIPTION(
/* description */ ('Alibre Inc.'),
/* implementation_level */ '2;1');

FILE_NAME(
/* name */ 'export-77D0773E-9DEF-43E7-8A17-E2AB00129657',
/* time_stamp */ '2025-04-05T22:03:53+08:00',
/* author */ (''),
/* organization */ (''),
/* preprocessor_version */ 'ST-DEVELOPER v17',
/* originating_system */ 'Alibre',
/* authorisation */ '');

FILE_SCHEMA (('CONFIG_CONTROL_DESIGN'));
ENDSEC;

DATA;
#10=MECHANICAL_CONTEXT('detailed design',#18,'mechanical');
#11=PRODUCT_RELATED_PRODUCT_CATEGORY('detail','',(#98));
#12=CC_DESIGN_SECURITY_CLASSIFICATION(#14,(#97));
#13=SECURITY_CLASSIFICATION_LEVEL('unclassified');
#14=SECURITY_CLASSIFICATION('name','Security for version',#13);
#15=SHAPE_DEFINITION_REPRESENTATION(#16,#423);
#16=PRODUCT_DEFINITION_SHAPE('','DefinitionDesc',#96);
#17=APPLICATION_PROTOCOL_DEFINITION('AP definition status',
'config_control_design',1994,#18);
#18=APPLICATION_CONTEXT(
'control the configuration of three dimensional design');
#19=DESIGN_CONTEXT('detailed design',#18,'design');
#20=PERSON_AND_ORGANIZATION_ROLE('creator');
#21=PERSON_AND_ORGANIZATION_ROLE('classification_officer');
#22=PERSON_AND_ORGANIZATION_ROLE('creator');
#23=PERSON_AND_ORGANIZATION_ROLE('design_supplier');
#24=PERSON_AND_ORGANIZATION_ROLE('design_owner');
#25=CC_DESIGN_PERSON_AND_ORGANIZATION_ASSIGNMENT(#57,#20,(#96));
#26=CC_DESIGN_PERSON_AND_ORGANIZATION_ASSIGNMENT(#60,#21,(#14));
#27=CC_DESIGN_PERSON_AND_ORGANIZATION_ASSIGNMENT(#61,#22,(#97));
#28=CC_DESIGN_PERSON_AND_ORGANIZATION_ASSIGNMENT(#62,#23,(#97));
#29=CC_DESIGN_PERSON_AND_ORGANIZATION_ASSIGNMENT(#63,#24,(#98));
#30=DATE_TIME_ROLE('creation_date');
#31=DATE_TIME_ROLE('classification_date');
#32=CC_DESIGN_DATE_AND_TIME_ASSIGNMENT(#86,#30,(#96));
#33=CC_DESIGN_DATE_AND_TIME_ASSIGNMENT(#89,#31,(#14));
#34=CC_DESIGN_APPROVAL(#93,(#96));
#35=CC_DESIGN_APPROVAL(#94,(#97));
#36=CC_DESIGN_APPROVAL(#95,(#14));
#37=APPROVAL_PERSON_ORGANIZATION(#56,#93,#64);
#38=APPROVAL_PERSON_ORGANIZATION(#58,#94,#65);
#39=APPROVAL_PERSON_ORGANIZATION(#59,#95,#66);
#40=ORGANIZATION('DEFINITION_APPROVEDBY_ORG_ID',
'DEFINITION_APPROVEDBY_ORG_NAME','DEFINITION_APPROVEDBY_ORG_DESCR');
#41=ORGANIZATION('DEF_CREATOR_ORG_ID','DEF_CREATOR_ORG_NAME',
'DEF_CREATOR_ORG_DESCR');
#42=ORGANIZATION('APPROVEDBY_ORG_ID','APPROVEDBY_ORG_NAME',
'APPROVEDBY_ORG_DESCR');
#43=ORGANIZATION('SECURITY_APPROVEDBY_ORG_ID',
'SECURITY_APPROVEDBY_ORG_NAME','SECURITY_APPROVEDBY_ORG_DESCR');
#44=ORGANIZATION('CLASSOFFICER_ORG_ID','CLASSOFFICER_ORG_NAME',
'CLASSOFFICER_ORG_DESCR');
#45=ORGANIZATION('CREATOR_ORG_ID','CREATOR_ORG_NAME',
'CREATOR_ORG_DESCR');
#46=ORGANIZATION('SUPPLIER_ORG_ID','SUPPLIER_ORG_NAME',
'SUPPLIER_ORG_DESCR');
#47=ORGANIZATION('OWNER_ORG_ID','OWNER_ORG_NAME','OWNER_ORG_DESCR');
#48=PERSON('DEFINITION_approverID','DEFINITION_APPROVEDBY_LASTNAME',
'DEFINITION_APPROVEDBY_FIRSTNAME',$,$,$);
#49=PERSON('DEF_createrID','DEF_CREATOR_LASTNAME',
'DEF_CREATOR_FIRSTNAME',$,$,$);
#50=PERSON('approverID','APPROVEDBY_LASTNAME','APPROVEDBY_FIRSTNAME',$,
$,$);
#51=PERSON('SECURITY_approverID','SECURITY_LASTNAME',
'SECURITY_APPROVEDBY_FIRSTNAME',$,$,$);
#52=PERSON('classifierID','CLASSOFFICER_LASTNAME',
'CLASSOFFICER_FIRSTNAME',$,$,$);
#53=PERSON('createrID','CREATOR_LASTNAME','CREATOR_FIRSTNAME',$,$,$);
#54=PERSON('supplierID','SUPPLIER_LASTNAME','SUPPLIER_FIRSTNAME',$,$,$);
#55=PERSON('ownerID','OWNER_LASTNAME','OWNER_FIRSTNAME',$,$,$);
#56=PERSON_AND_ORGANIZATION(#48,#40);
#57=PERSON_AND_ORGANIZATION(#49,#41);
#58=PERSON_AND_ORGANIZATION(#50,#42);
#59=PERSON_AND_ORGANIZATION(#51,#43);
#60=PERSON_AND_ORGANIZATION(#52,#44);
#61=PERSON_AND_ORGANIZATION(#53,#45);
#62=PERSON_AND_ORGANIZATION(#54,#46);
#63=PERSON_AND_ORGANIZATION(#55,#47);
#64=APPROVAL_ROLE('definition_approval');
#65=APPROVAL_ROLE('version_approval');
#66=APPROVAL_ROLE('security_approval');
#67=APPROVAL_DATE_TIME(#85,#93);
#68=APPROVAL_DATE_TIME(#87,#94);
#69=APPROVAL_DATE_TIME(#88,#95);
#70=COORDINATED_UNIVERSAL_TIME_OFFSET(8,0,.AHEAD.);
#71=COORDINATED_UNIVERSAL_TIME_OFFSET(8,0,.AHEAD.);
#72=COORDINATED_UNIVERSAL_TIME_OFFSET(8,0,.AHEAD.);
#73=COORDINATED_UNIVERSAL_TIME_OFFSET(8,0,.AHEAD.);
#74=COORDINATED_UNIVERSAL_TIME_OFFSET(8,0,.AHEAD.);
#75=LOCAL_TIME(11,55,5.,#70);
#76=LOCAL_TIME(11,55,5.,#71);
#77=LOCAL_TIME(11,55,5.,#72);
#78=LOCAL_TIME(11,55,5.,#73);
#79=LOCAL_TIME(11,55,5.,#74);
#80=CALENDAR_DATE(2025,22,3);
#81=CALENDAR_DATE(2025,22,3);
#82=CALENDAR_DATE(2025,22,3);
#83=CALENDAR_DATE(2025,22,3);
#84=CALENDAR_DATE(2025,22,3);
#85=DATE_AND_TIME(#80,#75);
#86=DATE_AND_TIME(#81,#76);
#87=DATE_AND_TIME(#82,#77);
#88=DATE_AND_TIME(#83,#78);
#89=DATE_AND_TIME(#84,#79);
#90=APPROVAL_STATUS('not_yet_approved');
#91=APPROVAL_STATUS('not_yet_approved');
#92=APPROVAL_STATUS('not_yet_approved');
#93=APPROVAL(#90,'defintion approval');
#94=APPROVAL(#91,'version approval');
#95=APPROVAL(#92,'security approval');
#96=PRODUCT_DEFINITION('DefinitionID','DefinitionDesc',#97,#19);
#97=PRODUCT_DEFINITION_FORMATION_WITH_SPECIFIED_SOURCE(
'PRODUCT_VERSION_ID','PRODUCT_VERSION_DESCR',#98,.NOT_KNOWN.);
#98=PRODUCT('',
'Part# 9230796RM - EX2500 Track Adjuster Sleeve Standard','',(#10));
#99=(
LENGTH_UNIT()
NAMED_UNIT(*)
SI_UNIT(.CENTI.,.METRE.)
);
#100=(
NAMED_UNIT(*)
PLANE_ANGLE_UNIT()
SI_UNIT($,.RADIAN.)
);
#101=(
NAMED_UNIT(*)
SI_UNIT($,.STERADIAN.)
SOLID_ANGLE_UNIT()
);
#102=UNCERTAINTY_MEASURE_WITH_UNIT(LENGTH_MEASURE(1.E-6),#99,
'DISTANCE_ACCURACY_VALUE',
'Maximum model space distance between geometric entities at asserted c
onnectivities');
#103=(
GEOMETRIC_REPRESENTATION_CONTEXT(3)
GLOBAL_UNCERTAINTY_ASSIGNED_CONTEXT((#102))
GLOBAL_UNIT_ASSIGNED_CONTEXT((#101,#100,#99))
REPRESENTATION_CONTEXT('ID1','3D')
);
#104=PLANE('',#291);
#105=PLANE('',#295);
#106=PLANE('',#303);
#107=CYLINDRICAL_SURFACE('',#275,7.7115);
#108=CYLINDRICAL_SURFACE('',#281,7.7115);
#109=CYLINDRICAL_SURFACE('',#287,7.7115);
#110=CYLINDRICAL_SURFACE('',#293,8.5115);
#111=CYLINDRICAL_SURFACE('',#299,9.225);
#112=VERTEX_POINT('',#306);
#113=VERTEX_POINT('',#308);
#114=VERTEX_POINT('',#311);
#115=VERTEX_POINT('',#314);
#116=VERTEX_POINT('',#317);
#117=VERTEX_POINT('',#320);
#118=VERTEX_POINT('',#323);
#119=VERTEX_POINT('',#326);
#120=VERTEX_POINT('',#329);
#121=VERTEX_POINT('',#332);
#122=VERTEX_POINT('',#335);
#123=VERTEX_POINT('',#338);
#124=VERTEX_POINT('',#341);
#125=VERTEX_POINT('',#344);
#126=VERTEX_POINT('',#347);
#127=VERTEX_POINT('',#350);
#128=CIRCLE('',#273,7.94906443470173);
#129=CIRCLE('',#274,7.7115);
#130=CIRCLE('',#276,7.7115);
#131=CIRCLE('',#278,8.05017513459481);
#132=CIRCLE('',#280,7.7115);
#133=CIRCLE('',#282,7.7115);
#134=CIRCLE('',#284,8.05017513459481);
#135=CIRCLE('',#286,7.7115);
#136=CIRCLE('',#288,7.7115);
#137=CIRCLE('',#290,7.84188475772931);
#138=CIRCLE('',#292,8.5115);
#139=CIRCLE('',#294,8.5115);
#140=CIRCLE('',#296,9.025);
#141=CIRCLE('',#298,9.225);
#142=CIRCLE('',#300,9.225);
#143=CIRCLE('',#302,8.62500000000007);
#144=EDGE_CURVE('',#112,#112,#128,.T.);
#145=EDGE_CURVE('',#113,#113,#129,.T.);
#146=EDGE_CURVE('',#114,#114,#130,.T.);
#147=EDGE_CURVE('',#115,#115,#131,.T.);
#148=EDGE_CURVE('',#116,#116,#132,.T.);
#149=EDGE_CURVE('',#117,#117,#133,.T.);
#150=EDGE_CURVE('',#118,#118,#134,.T.);
#151=EDGE_CURVE('',#119,#119,#135,.T.);
#152=EDGE_CURVE('',#120,#120,#136,.T.);
#153=EDGE_CURVE('',#121,#121,#137,.T.);
#154=EDGE_CURVE('',#122,#122,#138,.T.);
#155=EDGE_CURVE('',#123,#123,#139,.T.);
#156=EDGE_CURVE('',#124,#124,#140,.T.);
#157=EDGE_CURVE('',#125,#125,#141,.T.);
#158=EDGE_CURVE('',#126,#126,#142,.T.);
#159=EDGE_CURVE('',#127,#127,#143,.T.);
#160=ORIENTED_EDGE('',*,*,#144,.T.);
#161=ORIENTED_EDGE('',*,*,#145,.F.);
#162=ORIENTED_EDGE('',*,*,#146,.F.);
#163=ORIENTED_EDGE('',*,*,#145,.T.);
#164=ORIENTED_EDGE('',*,*,#146,.T.);
#165=ORIENTED_EDGE('',*,*,#147,.F.);
#166=ORIENTED_EDGE('',*,*,#147,.T.);
#167=ORIENTED_EDGE('',*,*,#148,.F.);
#168=ORIENTED_EDGE('',*,*,#149,.F.);
#169=ORIENTED_EDGE('',*,*,#148,.T.);
#170=ORIENTED_EDGE('',*,*,#149,.T.);
#171=ORIENTED_EDGE('',*,*,#150,.F.);
#172=ORIENTED_EDGE('',*,*,#150,.T.);
#173=ORIENTED_EDGE('',*,*,#151,.F.);
#174=ORIENTED_EDGE('',*,*,#152,.F.);
#175=ORIENTED_EDGE('',*,*,#151,.T.);
#176=ORIENTED_EDGE('',*,*,#152,.T.);
#177=ORIENTED_EDGE('',*,*,#153,.F.);
#178=ORIENTED_EDGE('',*,*,#154,.F.);
#179=ORIENTED_EDGE('',*,*,#153,.T.);
#180=ORIENTED_EDGE('',*,*,#155,.F.);
#181=ORIENTED_EDGE('',*,*,#154,.T.);
#182=ORIENTED_EDGE('',*,*,#156,.F.);
#183=ORIENTED_EDGE('',*,*,#155,.T.);
#184=ORIENTED_EDGE('',*,*,#157,.F.);
#185=ORIENTED_EDGE('',*,*,#156,.T.);
#186=ORIENTED_EDGE('',*,*,#158,.F.);
#187=ORIENTED_EDGE('',*,*,#157,.T.);
#188=ORIENTED_EDGE('',*,*,#159,.F.);
#189=ORIENTED_EDGE('',*,*,#158,.T.);
#190=ORIENTED_EDGE('',*,*,#144,.F.);
#191=ORIENTED_EDGE('',*,*,#159,.T.);
#192=EDGE_LOOP('',(#160));
#193=EDGE_LOOP('',(#161));
#194=EDGE_LOOP('',(#162));
#195=EDGE_LOOP('',(#163));
#196=EDGE_LOOP('',(#164));
#197=EDGE_LOOP('',(#165));
#198=EDGE_LOOP('',(#166));
#199=EDGE_LOOP('',(#167));
#200=EDGE_LOOP('',(#168));
#201=EDGE_LOOP('',(#169));
#202=EDGE_LOOP('',(#170));
#203=EDGE_LOOP('',(#171));
#204=EDGE_LOOP('',(#172));
#205=EDGE_LOOP('',(#173));
#206=EDGE_LOOP('',(#174));
#207=EDGE_LOOP('',(#175));
#208=EDGE_LOOP('',(#176));
#209=EDGE_LOOP('',(#177));
#210=EDGE_LOOP('',(#178));
#211=EDGE_LOOP('',(#179));
#212=EDGE_LOOP('',(#180));
#213=EDGE_LOOP('',(#181));
#214=EDGE_LOOP('',(#182));
#215=EDGE_LOOP('',(#183));
#216=EDGE_LOOP('',(#184));
#217=EDGE_LOOP('',(#185));
#218=EDGE_LOOP('',(#186));
#219=EDGE_LOOP('',(#187));
#220=EDGE_LOOP('',(#188));
#221=EDGE_LOOP('',(#189));
#222=EDGE_LOOP('',(#190));
#223=EDGE_LOOP('',(#191));
#224=FACE_BOUND('',#192,.T.);
#225=FACE_BOUND('',#193,.T.);
#226=FACE_BOUND('',#194,.T.);
#227=FACE_BOUND('',#195,.T.);
#228=FACE_BOUND('',#196,.T.);
#229=FACE_BOUND('',#197,.T.);
#230=FACE_BOUND('',#198,.T.);
#231=FACE_BOUND('',#199,.T.);
#232=FACE_BOUND('',#200,.T.);
#233=FACE_BOUND('',#201,.T.);
#234=FACE_BOUND('',#202,.T.);
#235=FACE_BOUND('',#203,.T.);
#236=FACE_BOUND('',#204,.T.);
#237=FACE_BOUND('',#205,.T.);
#238=FACE_BOUND('',#206,.T.);
#239=FACE_BOUND('',#207,.T.);
#240=FACE_BOUND('',#208,.T.);
#241=FACE_BOUND('',#209,.T.);
#242=FACE_BOUND('',#210,.T.);
#243=FACE_BOUND('',#211,.T.);
#244=FACE_BOUND('',#212,.T.);
#245=FACE_BOUND('',#213,.T.);
#246=FACE_BOUND('',#214,.T.);
#247=FACE_BOUND('',#215,.T.);
#248=FACE_BOUND('',#216,.T.);
#249=FACE_BOUND('',#217,.T.);
#250=FACE_BOUND('',#218,.T.);
#251=FACE_BOUND('',#219,.T.);
#252=FACE_BOUND('',#220,.T.);
#253=FACE_BOUND('',#221,.T.);
#254=FACE_BOUND('',#222,.T.);
#255=FACE_BOUND('',#223,.T.);
#256=ADVANCED_FACE('',(#224,#225),#413,.F.);
#257=ADVANCED_FACE('',(#226,#227),#107,.F.);
#258=ADVANCED_FACE('',(#228,#229),#414,.F.);
#259=ADVANCED_FACE('',(#230,#231),#415,.F.);
#260=ADVANCED_FACE('',(#232,#233),#108,.F.);
#261=ADVANCED_FACE('',(#234,#235),#416,.F.);
#262=ADVANCED_FACE('',(#236,#237),#417,.F.);
#263=ADVANCED_FACE('',(#238,#239),#109,.F.);
#264=ADVANCED_FACE('',(#240,#241),#418,.F.);
#265=ADVANCED_FACE('',(#242,#243),#104,.T.);
#266=ADVANCED_FACE('',(#244,#245),#110,.F.);
#267=ADVANCED_FACE('',(#246,#247),#105,.T.);
#268=ADVANCED_FACE('',(#248,#249),#419,.T.);
#269=ADVANCED_FACE('',(#250,#251),#111,.T.);
#270=ADVANCED_FACE('',(#252,#253),#420,.T.);
#271=ADVANCED_FACE('',(#254,#255),#106,.T.);
#272=AXIS2_PLACEMENT_3D('',#304,#352,#353);
#273=AXIS2_PLACEMENT_3D('',#305,#354,#355);
#274=AXIS2_PLACEMENT_3D('',#307,#356,#357);
#275=AXIS2_PLACEMENT_3D('',#309,#358,#359);
#276=AXIS2_PLACEMENT_3D('',#310,#360,#361);
#277=AXIS2_PLACEMENT_3D('',#312,#362,#363);
#278=AXIS2_PLACEMENT_3D('',#313,#364,#365);
#279=AXIS2_PLACEMENT_3D('',#315,#366,#367);
#280=AXIS2_PLACEMENT_3D('',#316,#368,#369);
#281=AXIS2_PLACEMENT_3D('',#318,#370,#371);
#282=AXIS2_PLACEMENT_3D('',#319,#372,#373);
#283=AXIS2_PLACEMENT_3D('',#321,#374,#375);
#284=AXIS2_PLACEMENT_3D('',#322,#376,#377);
#285=AXIS2_PLACEMENT_3D('',#324,#378,#379);
#286=AXIS2_PLACEMENT_3D('',#325,#380,#381);
#287=AXIS2_PLACEMENT_3D('',#327,#382,#383);
#288=AXIS2_PLACEMENT_3D('',#328,#384,#385);
#289=AXIS2_PLACEMENT_3D('',#330,#386,#387);
#290=AXIS2_PLACEMENT_3D('',#331,#388,#389);
#291=AXIS2_PLACEMENT_3D('',#333,#390,$);
#292=AXIS2_PLACEMENT_3D('',#334,#391,#392);
#293=AXIS2_PLACEMENT_3D('',#336,#393,#394);
#294=AXIS2_PLACEMENT_3D('',#337,#395,#396);
#295=AXIS2_PLACEMENT_3D('',#339,#397,$);
#296=AXIS2_PLACEMENT_3D('',#340,#398,#399);
#297=AXIS2_PLACEMENT_3D('',#342,#400,#401);
#298=AXIS2_PLACEMENT_3D('',#343,#402,#403);
#299=AXIS2_PLACEMENT_3D('',#345,#404,#405);
#300=AXIS2_PLACEMENT_3D('',#346,#406,#407);
#301=AXIS2_PLACEMENT_3D('',#348,#408,#409);
#302=AXIS2_PLACEMENT_3D('',#349,#410,#411);
#303=AXIS2_PLACEMENT_3D('',#351,#412,$);
#304=CARTESIAN_POINT('',(0.,0.,-0.493301270189252));
#305=CARTESIAN_POINT('',(0.,0.,0.3));
#306=CARTESIAN_POINT('',(0.,-7.94906443470173,0.3));
#307=CARTESIAN_POINT('',(0.,0.,-0.586602540378504));
#308=CARTESIAN_POINT('',(0.,-7.7115,-0.586602540378504));
#309=CARTESIAN_POINT('',(0.,0.,-2.00000000000003));
#310=CARTESIAN_POINT('',(0.,0.,-3.41339745962156));
#311=CARTESIAN_POINT('',(0.,-7.7115,-3.41339745962156));
#312=CARTESIAN_POINT('',(0.,0.,-3.75));
#313=CARTESIAN_POINT('',(0.,0.,-4.));
#314=CARTESIAN_POINT('',(0.,-8.05017513459481,-4.));
#315=CARTESIAN_POINT('',(0.,0.,-4.54330127018923));
#316=CARTESIAN_POINT('',(0.,0.,-4.58660254037845));
#317=CARTESIAN_POINT('',(0.,-7.7115,-4.58660254037845));
#318=CARTESIAN_POINT('',(0.,0.,-6.5));
#319=CARTESIAN_POINT('',(0.,0.,-8.41339745962155));
#320=CARTESIAN_POINT('',(0.,-7.7115,-8.41339745962155));
#321=CARTESIAN_POINT('',(0.,0.,-8.75));
#322=CARTESIAN_POINT('',(0.,0.,-9.));
#323=CARTESIAN_POINT('',(0.,-8.05017513459481,-9.));
#324=CARTESIAN_POINT('',(0.,0.,-9.54330127018922));
#325=CARTESIAN_POINT('',(0.,0.,-9.58660254037845));
#326=CARTESIAN_POINT('',(0.,-7.7115,-9.58660254037845));
#327=CARTESIAN_POINT('',(0.,0.,-10.25));
#328=CARTESIAN_POINT('',(0.,0.,-10.9133974596215));
#329=CARTESIAN_POINT('',(0.,-7.7115,-10.9133974596215));
#330=CARTESIAN_POINT('',(0.,0.,-11.25));
#331=CARTESIAN_POINT('',(0.,0.,-11.4));
#332=CARTESIAN_POINT('',(0.,-7.84188475772931,-11.4));
#333=CARTESIAN_POINT('',(0.,-8.17669237886465,-11.4));
#334=CARTESIAN_POINT('',(0.,0.,-11.4));
#335=CARTESIAN_POINT('',(0.,-8.5115,-11.4));
#336=CARTESIAN_POINT('',(0.,0.,-11.95));
#337=CARTESIAN_POINT('',(0.,0.,-12.5));
#338=CARTESIAN_POINT('',(0.,-8.5115,-12.5));
#339=CARTESIAN_POINT('',(0.,-8.76825,-12.5));
#340=CARTESIAN_POINT('',(0.,0.,-12.5));
#341=CARTESIAN_POINT('',(0.,-9.025,-12.5));
#342=CARTESIAN_POINT('',(0.,0.,-12.4));
#343=CARTESIAN_POINT('',(0.,0.,-12.3));
#344=CARTESIAN_POINT('',(0.,-9.225,-12.3));
#345=CARTESIAN_POINT('',(0.,0.,-6.29999999999997));
#346=CARTESIAN_POINT('',(0.,0.,-0.299999999999926));
#347=CARTESIAN_POINT('',(0.,-9.225,-0.299999999999926));
#348=CARTESIAN_POINT('',(0.,0.,3.71369601737115E-14));
#349=CARTESIAN_POINT('',(0.,0.,0.3));
#350=CARTESIAN_POINT('',(0.,-8.62500000000007,0.3));
#351=CARTESIAN_POINT('',(0.,-8.2870322173509,0.3));
#352=DIRECTION('',(0.,0.,1.));
#353=DIRECTION('',(0.,-7.7365,0.));
#354=DIRECTION('',(0.,0.,1.));
#355=DIRECTION('',(0.,-7.94906443470173,0.));
#356=DIRECTION('',(0.,0.,1.));
#357=DIRECTION('',(0.,-7.7115,0.));
#358=DIRECTION('',(0.,0.,1.));
#359=DIRECTION('',(0.,-7.7115,0.));
#360=DIRECTION('',(0.,0.,1.));
#361=DIRECTION('',(0.,-7.7115,0.));
#362=DIRECTION('',(0.,0.,-1.));
#363=DIRECTION('',(0.,-7.90583756729741,0.));
#364=DIRECTION('',(0.,0.,1.));
#365=DIRECTION('',(0.,-8.05017513459481,0.));
#366=DIRECTION('',(0.,0.,1.));
#367=DIRECTION('',(0.,-7.7365,0.));
#368=DIRECTION('',(0.,0.,1.));
#369=DIRECTION('',(0.,-7.7115,0.));
#370=DIRECTION('',(0.,0.,1.));
#371=DIRECTION('',(0.,-7.7115,0.));
#372=DIRECTION('',(0.,0.,1.));
#373=DIRECTION('',(0.,-7.7115,0.));
#374=DIRECTION('',(0.,0.,-1.));
#375=DIRECTION('',(0.,-7.90583756729741,0.));
#376=DIRECTION('',(0.,0.,1.));
#377=DIRECTION('',(0.,-8.05017513459481,0.));
#378=DIRECTION('',(0.,0.,1.));
#379=DIRECTION('',(0.,-7.7365,0.));
#380=DIRECTION('',(0.,0.,1.));
#381=DIRECTION('',(0.,-7.7115,0.));
#382=DIRECTION('',(0.,0.,1.));
#383=DIRECTION('',(0.,-7.7115,0.));
#384=DIRECTION('',(0.,0.,1.));
#385=DIRECTION('',(0.,-7.7115,0.));
#386=DIRECTION('',(0.,0.,-1.));
#387=DIRECTION('',(0.,-7.80169237886465,0.));
#388=DIRECTION('',(0.,0.,1.));
#389=DIRECTION('',(0.,-7.84188475772931,0.));
#390=DIRECTION('',(0.,0.,-1.));
#391=DIRECTION('',(0.,0.,1.));
#392=DIRECTION('',(0.,-8.5115,0.));
#393=DIRECTION('',(0.,0.,1.));
#394=DIRECTION('',(0.,-8.5115,0.));
#395=DIRECTION('',(0.,0.,1.));
#396=DIRECTION('',(0.,-8.5115,0.));
#397=DIRECTION('',(0.,0.,-1.));
#398=DIRECTION('',(0.,0.,1.));
#399=DIRECTION('',(0.,-9.025,0.));
#400=DIRECTION('',(0.,0.,1.));
#401=DIRECTION('',(0.,-9.125,0.));
#402=DIRECTION('',(0.,0.,1.));
#403=DIRECTION('',(0.,-9.225,0.));
#404=DIRECTION('',(0.,0.,1.));
#405=DIRECTION('',(0.,-9.225,0.));
#406=DIRECTION('',(0.,0.,1.));
#407=DIRECTION('',(0.,-9.225,0.));
#408=DIRECTION('',(0.,0.,-1.));
#409=DIRECTION('',(0.,-8.92500000000004,0.));
#410=DIRECTION('',(0.,0.,1.));
#411=DIRECTION('',(0.,-8.62500000000007,0.));
#412=DIRECTION('',(0.,1.64249831141098E-16,1.));
#413=CONICAL_SURFACE('',#272,7.7365,0.261799387799068);
#414=CONICAL_SURFACE('',#277,7.90583756729741,0.523598775598301);
#415=CONICAL_SURFACE('',#279,7.7365,0.523598775598285);
#416=CONICAL_SURFACE('',#283,7.90583756729741,0.523598775598302);
#417=CONICAL_SURFACE('',#285,7.7365,0.523598775598298);
#418=CONICAL_SURFACE('',#289,7.80169237886465,0.261799387799073);
#419=CONICAL_SURFACE('',#297,9.125,0.785398163397448);
#420=CONICAL_SURFACE('',#301,8.92500000000004,0.78539816339745);
#421=CLOSED_SHELL('',(#256,#257,#258,#259,#260,#261,#262,#263,#264,#265,
#266,#267,#268,#269,#270,#271));
#422=MANIFOLD_SOLID_BREP('',#421);
#423=ADVANCED_BREP_SHAPE_REPRESENTATION('',(#422),#103);
ENDSEC;
END-ISO-10303-21;
