ISO-10303-21;
HEADER;
/* Generated by software containing ST-Developer
 * from STEP Tools, Inc. (www.steptools.com) 
 */

FILE_DESCRIPTION(
/* description */ ('Alibre Inc.'),
/* implementation_level */ '2;1');

FILE_NAME(
/* name */ 'export-23FD9EA3-051F-4757-AA78-2C8DA134B285',
/* time_stamp */ '2025-04-05T22:03:36+08:00',
/* author */ (''),
/* organization */ (''),
/* preprocessor_version */ 'ST-DEVELOPER v17',
/* originating_system */ 'Alibre',
/* authorisation */ '');

FILE_SCHEMA (('CONFIG_CONTROL_DESIGN'));
ENDSEC;

DATA;
#10=MECHANICAL_CONTEXT('detailed design',#18,'mechanical');
#11=PRODUCT_RELATED_PRODUCT_CATEGORY('detail','',(#98));
#12=CC_DESIGN_SECURITY_CLASSIFICATION(#14,(#97));
#13=SECURITY_CLASSIFICATION_LEVEL('unclassified');
#14=SECURITY_CLASSIFICATION('name','Security for version',#13);
#15=SHAPE_DEFINITION_REPRESENTATION(#16,#560);
#16=PRODUCT_DEFINITION_SHAPE('','DefinitionDesc',#96);
#17=APPLICATION_PROTOCOL_DEFINITION('AP definition status',
'config_control_design',1994,#18);
#18=APPLICATION_CONTEXT(
'control the configuration of three dimensional design');
#19=DESIGN_CONTEXT('detailed design',#18,'design');
#20=PERSON_AND_ORGANIZATION_ROLE('creator');
#21=PERSON_AND_ORGANIZATION_ROLE('classification_officer');
#22=PERSON_AND_ORGANIZATION_ROLE('creator');
#23=PERSON_AND_ORGANIZATION_ROLE('design_supplier');
#24=PERSON_AND_ORGANIZATION_ROLE('design_owner');
#25=CC_DESIGN_PERSON_AND_ORGANIZATION_ASSIGNMENT(#57,#20,(#96));
#26=CC_DESIGN_PERSON_AND_ORGANIZATION_ASSIGNMENT(#60,#21,(#14));
#27=CC_DESIGN_PERSON_AND_ORGANIZATION_ASSIGNMENT(#61,#22,(#97));
#28=CC_DESIGN_PERSON_AND_ORGANIZATION_ASSIGNMENT(#62,#23,(#97));
#29=CC_DESIGN_PERSON_AND_ORGANIZATION_ASSIGNMENT(#63,#24,(#98));
#30=DATE_TIME_ROLE('creation_date');
#31=DATE_TIME_ROLE('classification_date');
#32=CC_DESIGN_DATE_AND_TIME_ASSIGNMENT(#86,#30,(#96));
#33=CC_DESIGN_DATE_AND_TIME_ASSIGNMENT(#89,#31,(#14));
#34=CC_DESIGN_APPROVAL(#93,(#96));
#35=CC_DESIGN_APPROVAL(#94,(#97));
#36=CC_DESIGN_APPROVAL(#95,(#14));
#37=APPROVAL_PERSON_ORGANIZATION(#56,#93,#64);
#38=APPROVAL_PERSON_ORGANIZATION(#58,#94,#65);
#39=APPROVAL_PERSON_ORGANIZATION(#59,#95,#66);
#40=ORGANIZATION('DEFINITION_APPROVEDBY_ORG_ID',
'DEFINITION_APPROVEDBY_ORG_NAME','DEFINITION_APPROVEDBY_ORG_DESCR');
#41=ORGANIZATION('DEF_CREATOR_ORG_ID','DEF_CREATOR_ORG_NAME',
'DEF_CREATOR_ORG_DESCR');
#42=ORGANIZATION('APPROVEDBY_ORG_ID','APPROVEDBY_ORG_NAME',
'APPROVEDBY_ORG_DESCR');
#43=ORGANIZATION('SECURITY_APPROVEDBY_ORG_ID',
'SECURITY_APPROVEDBY_ORG_NAME','SECURITY_APPROVEDBY_ORG_DESCR');
#44=ORGANIZATION('CLASSOFFICER_ORG_ID','CLASSOFFICER_ORG_NAME',
'CLASSOFFICER_ORG_DESCR');
#45=ORGANIZATION('CREATOR_ORG_ID','CREATOR_ORG_NAME',
'CREATOR_ORG_DESCR');
#46=ORGANIZATION('SUPPLIER_ORG_ID','SUPPLIER_ORG_NAME',
'SUPPLIER_ORG_DESCR');
#47=ORGANIZATION('OWNER_ORG_ID','OWNER_ORG_NAME','OWNER_ORG_DESCR');
#48=PERSON('DEFINITION_approverID','DEFINITION_APPROVEDBY_LASTNAME',
'DEFINITION_APPROVEDBY_FIRSTNAME',$,$,$);
#49=PERSON('DEF_createrID','DEF_CREATOR_LASTNAME',
'DEF_CREATOR_FIRSTNAME',$,$,$);
#50=PERSON('approverID','APPROVEDBY_LASTNAME','APPROVEDBY_FIRSTNAME',$,
$,$);
#51=PERSON('SECURITY_approverID','SECURITY_LASTNAME',
'SECURITY_APPROVEDBY_FIRSTNAME',$,$,$);
#52=PERSON('classifierID','CLASSOFFICER_LASTNAME',
'CLASSOFFICER_FIRSTNAME',$,$,$);
#53=PERSON('createrID','CREATOR_LASTNAME','CREATOR_FIRSTNAME',$,$,$);
#54=PERSON('supplierID','SUPPLIER_LASTNAME','SUPPLIER_FIRSTNAME',$,$,$);
#55=PERSON('ownerID','OWNER_LASTNAME','OWNER_FIRSTNAME',$,$,$);
#56=PERSON_AND_ORGANIZATION(#48,#40);
#57=PERSON_AND_ORGANIZATION(#49,#41);
#58=PERSON_AND_ORGANIZATION(#50,#42);
#59=PERSON_AND_ORGANIZATION(#51,#43);
#60=PERSON_AND_ORGANIZATION(#52,#44);
#61=PERSON_AND_ORGANIZATION(#53,#45);
#62=PERSON_AND_ORGANIZATION(#54,#46);
#63=PERSON_AND_ORGANIZATION(#55,#47);
#64=APPROVAL_ROLE('definition_approval');
#65=APPROVAL_ROLE('version_approval');
#66=APPROVAL_ROLE('security_approval');
#67=APPROVAL_DATE_TIME(#85,#93);
#68=APPROVAL_DATE_TIME(#87,#94);
#69=APPROVAL_DATE_TIME(#88,#95);
#70=COORDINATED_UNIVERSAL_TIME_OFFSET(8,0,.AHEAD.);
#71=COORDINATED_UNIVERSAL_TIME_OFFSET(8,0,.AHEAD.);
#72=COORDINATED_UNIVERSAL_TIME_OFFSET(8,0,.AHEAD.);
#73=COORDINATED_UNIVERSAL_TIME_OFFSET(8,0,.AHEAD.);
#74=COORDINATED_UNIVERSAL_TIME_OFFSET(8,0,.AHEAD.);
#75=LOCAL_TIME(11,55,5.,#70);
#76=LOCAL_TIME(11,55,5.,#71);
#77=LOCAL_TIME(11,55,5.,#72);
#78=LOCAL_TIME(11,55,5.,#73);
#79=LOCAL_TIME(11,55,5.,#74);
#80=CALENDAR_DATE(2025,22,3);
#81=CALENDAR_DATE(2025,22,3);
#82=CALENDAR_DATE(2025,22,3);
#83=CALENDAR_DATE(2025,22,3);
#84=CALENDAR_DATE(2025,22,3);
#85=DATE_AND_TIME(#80,#75);
#86=DATE_AND_TIME(#81,#76);
#87=DATE_AND_TIME(#82,#77);
#88=DATE_AND_TIME(#83,#78);
#89=DATE_AND_TIME(#84,#79);
#90=APPROVAL_STATUS('not_yet_approved');
#91=APPROVAL_STATUS('not_yet_approved');
#92=APPROVAL_STATUS('not_yet_approved');
#93=APPROVAL(#90,'defintion approval');
#94=APPROVAL(#91,'version approval');
#95=APPROVAL(#92,'security approval');
#96=PRODUCT_DEFINITION('DefinitionID','DefinitionDesc',#97,#19);
#97=PRODUCT_DEFINITION_FORMATION_WITH_SPECIFIED_SOURCE(
'PRODUCT_VERSION_ID','PRODUCT_VERSION_DESCR',#98,.NOT_KNOWN.);
#98=PRODUCT('',
'Part# 9230796RM - EX2500 Track Adjuster Sleeve Modified Land','',(#10));
#99=(
LENGTH_UNIT()
NAMED_UNIT(*)
SI_UNIT(.CENTI.,.METRE.)
);
#100=(
NAMED_UNIT(*)
PLANE_ANGLE_UNIT()
SI_UNIT($,.RADIAN.)
);
#101=(
NAMED_UNIT(*)
SI_UNIT($,.STERADIAN.)
SOLID_ANGLE_UNIT()
);
#102=UNCERTAINTY_MEASURE_WITH_UNIT(LENGTH_MEASURE(1.E-6),#99,
'DISTANCE_ACCURACY_VALUE',
'Maximum model space distance between geometric entities at asserted c
onnectivities');
#103=(
GEOMETRIC_REPRESENTATION_CONTEXT(3)
GLOBAL_UNCERTAINTY_ASSIGNED_CONTEXT((#102))
GLOBAL_UNIT_ASSIGNED_CONTEXT((#101,#100,#99))
REPRESENTATION_CONTEXT('ID1','3D')
);
#104=PLANE('',#367);
#105=PLANE('',#371);
#106=PLANE('',#375);
#107=PLANE('',#381);
#108=PLANE('',#385);
#109=PLANE('',#393);
#110=CYLINDRICAL_SURFACE('',#351,7.7115);
#111=CYLINDRICAL_SURFACE('',#357,7.7115);
#112=CYLINDRICAL_SURFACE('',#363,7.7115);
#113=CYLINDRICAL_SURFACE('',#369,8.5115);
#114=CYLINDRICAL_SURFACE('',#373,7.7615);
#115=CYLINDRICAL_SURFACE('',#379,9.225);
#116=CYLINDRICAL_SURFACE('',#383,9.175);
#117=CYLINDRICAL_SURFACE('',#389,9.425);
#118=VERTEX_POINT('',#396);
#119=VERTEX_POINT('',#398);
#120=VERTEX_POINT('',#401);
#121=VERTEX_POINT('',#404);
#122=VERTEX_POINT('',#407);
#123=VERTEX_POINT('',#410);
#124=VERTEX_POINT('',#413);
#125=VERTEX_POINT('',#416);
#126=VERTEX_POINT('',#419);
#127=VERTEX_POINT('',#422);
#128=VERTEX_POINT('',#425);
#129=VERTEX_POINT('',#428);
#130=VERTEX_POINT('',#431);
#131=VERTEX_POINT('',#434);
#132=VERTEX_POINT('',#437);
#133=VERTEX_POINT('',#440);
#134=VERTEX_POINT('',#443);
#135=VERTEX_POINT('',#446);
#136=VERTEX_POINT('',#449);
#137=VERTEX_POINT('',#452);
#138=VERTEX_POINT('',#455);
#139=VERTEX_POINT('',#458);
#140=VERTEX_POINT('',#461);
#141=CIRCLE('',#349,7.92226951545864);
#142=CIRCLE('',#350,7.7115);
#143=CIRCLE('',#352,7.7115);
#144=CIRCLE('',#354,8.05017513459481);
#145=CIRCLE('',#356,7.7115);
#146=CIRCLE('',#358,7.7115);
#147=CIRCLE('',#360,8.05017513459481);
#148=CIRCLE('',#362,7.7115);
#149=CIRCLE('',#364,7.7115);
#150=CIRCLE('',#366,7.84188475772932);
#151=CIRCLE('',#368,8.5115);
#152=CIRCLE('',#370,8.5115);
#153=CIRCLE('',#372,7.7615);
#154=CIRCLE('',#374,7.7615);
#155=CIRCLE('',#376,9.02500000000001);
#156=CIRCLE('',#378,9.225);
#157=CIRCLE('',#380,9.225);
#158=CIRCLE('',#382,9.17499999999999);
#159=CIRCLE('',#384,9.175);
#160=CIRCLE('',#386,9.325);
#161=CIRCLE('',#388,9.425);
#162=CIRCLE('',#390,9.425);
#163=CIRCLE('',#392,8.82500000000007);
#164=EDGE_CURVE('',#118,#118,#141,.T.);
#165=EDGE_CURVE('',#119,#119,#142,.T.);
#166=EDGE_CURVE('',#120,#120,#143,.T.);
#167=EDGE_CURVE('',#121,#121,#144,.T.);
#168=EDGE_CURVE('',#122,#122,#145,.T.);
#169=EDGE_CURVE('',#123,#123,#146,.T.);
#170=EDGE_CURVE('',#124,#124,#147,.T.);
#171=EDGE_CURVE('',#125,#125,#148,.T.);
#172=EDGE_CURVE('',#126,#126,#149,.T.);
#173=EDGE_CURVE('',#127,#127,#150,.T.);
#174=EDGE_CURVE('',#128,#128,#151,.T.);
#175=EDGE_CURVE('',#129,#129,#152,.T.);
#176=EDGE_CURVE('',#130,#130,#153,.T.);
#177=EDGE_CURVE('',#131,#131,#154,.T.);
#178=EDGE_CURVE('',#132,#132,#155,.T.);
#179=EDGE_CURVE('',#133,#133,#156,.T.);
#180=EDGE_CURVE('',#134,#134,#157,.T.);
#181=EDGE_CURVE('',#135,#135,#158,.T.);
#182=EDGE_CURVE('',#136,#136,#159,.T.);
#183=EDGE_CURVE('',#137,#137,#160,.T.);
#184=EDGE_CURVE('',#138,#138,#161,.T.);
#185=EDGE_CURVE('',#139,#139,#162,.T.);
#186=EDGE_CURVE('',#140,#140,#163,.T.);
#187=ORIENTED_EDGE('',*,*,#164,.T.);
#188=ORIENTED_EDGE('',*,*,#165,.F.);
#189=ORIENTED_EDGE('',*,*,#166,.F.);
#190=ORIENTED_EDGE('',*,*,#165,.T.);
#191=ORIENTED_EDGE('',*,*,#166,.T.);
#192=ORIENTED_EDGE('',*,*,#167,.F.);
#193=ORIENTED_EDGE('',*,*,#167,.T.);
#194=ORIENTED_EDGE('',*,*,#168,.F.);
#195=ORIENTED_EDGE('',*,*,#169,.F.);
#196=ORIENTED_EDGE('',*,*,#168,.T.);
#197=ORIENTED_EDGE('',*,*,#169,.T.);
#198=ORIENTED_EDGE('',*,*,#170,.F.);
#199=ORIENTED_EDGE('',*,*,#170,.T.);
#200=ORIENTED_EDGE('',*,*,#171,.F.);
#201=ORIENTED_EDGE('',*,*,#172,.F.);
#202=ORIENTED_EDGE('',*,*,#171,.T.);
#203=ORIENTED_EDGE('',*,*,#172,.T.);
#204=ORIENTED_EDGE('',*,*,#173,.F.);
#205=ORIENTED_EDGE('',*,*,#174,.F.);
#206=ORIENTED_EDGE('',*,*,#173,.T.);
#207=ORIENTED_EDGE('',*,*,#175,.F.);
#208=ORIENTED_EDGE('',*,*,#174,.T.);
#209=ORIENTED_EDGE('',*,*,#176,.F.);
#210=ORIENTED_EDGE('',*,*,#175,.T.);
#211=ORIENTED_EDGE('',*,*,#177,.F.);
#212=ORIENTED_EDGE('',*,*,#176,.T.);
#213=ORIENTED_EDGE('',*,*,#178,.F.);
#214=ORIENTED_EDGE('',*,*,#177,.T.);
#215=ORIENTED_EDGE('',*,*,#179,.F.);
#216=ORIENTED_EDGE('',*,*,#178,.T.);
#217=ORIENTED_EDGE('',*,*,#180,.F.);
#218=ORIENTED_EDGE('',*,*,#179,.T.);
#219=ORIENTED_EDGE('',*,*,#181,.F.);
#220=ORIENTED_EDGE('',*,*,#180,.T.);
#221=ORIENTED_EDGE('',*,*,#182,.F.);
#222=ORIENTED_EDGE('',*,*,#181,.T.);
#223=ORIENTED_EDGE('',*,*,#183,.F.);
#224=ORIENTED_EDGE('',*,*,#182,.T.);
#225=ORIENTED_EDGE('',*,*,#184,.F.);
#226=ORIENTED_EDGE('',*,*,#183,.T.);
#227=ORIENTED_EDGE('',*,*,#185,.F.);
#228=ORIENTED_EDGE('',*,*,#184,.T.);
#229=ORIENTED_EDGE('',*,*,#186,.F.);
#230=ORIENTED_EDGE('',*,*,#185,.T.);
#231=ORIENTED_EDGE('',*,*,#164,.F.);
#232=ORIENTED_EDGE('',*,*,#186,.T.);
#233=EDGE_LOOP('',(#187));
#234=EDGE_LOOP('',(#188));
#235=EDGE_LOOP('',(#189));
#236=EDGE_LOOP('',(#190));
#237=EDGE_LOOP('',(#191));
#238=EDGE_LOOP('',(#192));
#239=EDGE_LOOP('',(#193));
#240=EDGE_LOOP('',(#194));
#241=EDGE_LOOP('',(#195));
#242=EDGE_LOOP('',(#196));
#243=EDGE_LOOP('',(#197));
#244=EDGE_LOOP('',(#198));
#245=EDGE_LOOP('',(#199));
#246=EDGE_LOOP('',(#200));
#247=EDGE_LOOP('',(#201));
#248=EDGE_LOOP('',(#202));
#249=EDGE_LOOP('',(#203));
#250=EDGE_LOOP('',(#204));
#251=EDGE_LOOP('',(#205));
#252=EDGE_LOOP('',(#206));
#253=EDGE_LOOP('',(#207));
#254=EDGE_LOOP('',(#208));
#255=EDGE_LOOP('',(#209));
#256=EDGE_LOOP('',(#210));
#257=EDGE_LOOP('',(#211));
#258=EDGE_LOOP('',(#212));
#259=EDGE_LOOP('',(#213));
#260=EDGE_LOOP('',(#214));
#261=EDGE_LOOP('',(#215));
#262=EDGE_LOOP('',(#216));
#263=EDGE_LOOP('',(#217));
#264=EDGE_LOOP('',(#218));
#265=EDGE_LOOP('',(#219));
#266=EDGE_LOOP('',(#220));
#267=EDGE_LOOP('',(#221));
#268=EDGE_LOOP('',(#222));
#269=EDGE_LOOP('',(#223));
#270=EDGE_LOOP('',(#224));
#271=EDGE_LOOP('',(#225));
#272=EDGE_LOOP('',(#226));
#273=EDGE_LOOP('',(#227));
#274=EDGE_LOOP('',(#228));
#275=EDGE_LOOP('',(#229));
#276=EDGE_LOOP('',(#230));
#277=EDGE_LOOP('',(#231));
#278=EDGE_LOOP('',(#232));
#279=FACE_BOUND('',#233,.T.);
#280=FACE_BOUND('',#234,.T.);
#281=FACE_BOUND('',#235,.T.);
#282=FACE_BOUND('',#236,.T.);
#283=FACE_BOUND('',#237,.T.);
#284=FACE_BOUND('',#238,.T.);
#285=FACE_BOUND('',#239,.T.);
#286=FACE_BOUND('',#240,.T.);
#287=FACE_BOUND('',#241,.T.);
#288=FACE_BOUND('',#242,.T.);
#289=FACE_BOUND('',#243,.T.);
#290=FACE_BOUND('',#244,.T.);
#291=FACE_BOUND('',#245,.T.);
#292=FACE_BOUND('',#246,.T.);
#293=FACE_BOUND('',#247,.T.);
#294=FACE_BOUND('',#248,.T.);
#295=FACE_BOUND('',#249,.T.);
#296=FACE_BOUND('',#250,.T.);
#297=FACE_BOUND('',#251,.T.);
#298=FACE_BOUND('',#252,.T.);
#299=FACE_BOUND('',#253,.T.);
#300=FACE_BOUND('',#254,.T.);
#301=FACE_BOUND('',#255,.T.);
#302=FACE_BOUND('',#256,.T.);
#303=FACE_BOUND('',#257,.T.);
#304=FACE_BOUND('',#258,.T.);
#305=FACE_BOUND('',#259,.T.);
#306=FACE_BOUND('',#260,.T.);
#307=FACE_BOUND('',#261,.T.);
#308=FACE_BOUND('',#262,.T.);
#309=FACE_BOUND('',#263,.T.);
#310=FACE_BOUND('',#264,.T.);
#311=FACE_BOUND('',#265,.T.);
#312=FACE_BOUND('',#266,.T.);
#313=FACE_BOUND('',#267,.T.);
#314=FACE_BOUND('',#268,.T.);
#315=FACE_BOUND('',#269,.T.);
#316=FACE_BOUND('',#270,.T.);
#317=FACE_BOUND('',#271,.T.);
#318=FACE_BOUND('',#272,.T.);
#319=FACE_BOUND('',#273,.T.);
#320=FACE_BOUND('',#274,.T.);
#321=FACE_BOUND('',#275,.T.);
#322=FACE_BOUND('',#276,.T.);
#323=FACE_BOUND('',#277,.T.);
#324=FACE_BOUND('',#278,.T.);
#325=ADVANCED_FACE('',(#279,#280),#549,.F.);
#326=ADVANCED_FACE('',(#281,#282),#110,.F.);
#327=ADVANCED_FACE('',(#283,#284),#550,.F.);
#328=ADVANCED_FACE('',(#285,#286),#551,.F.);
#329=ADVANCED_FACE('',(#287,#288),#111,.F.);
#330=ADVANCED_FACE('',(#289,#290),#552,.F.);
#331=ADVANCED_FACE('',(#291,#292),#553,.F.);
#332=ADVANCED_FACE('',(#293,#294),#112,.F.);
#333=ADVANCED_FACE('',(#295,#296),#554,.F.);
#334=ADVANCED_FACE('',(#297,#298),#104,.T.);
#335=ADVANCED_FACE('',(#299,#300),#113,.F.);
#336=ADVANCED_FACE('',(#301,#302),#105,.T.);
#337=ADVANCED_FACE('',(#303,#304),#114,.F.);
#338=ADVANCED_FACE('',(#305,#306),#106,.T.);
#339=ADVANCED_FACE('',(#307,#308),#555,.T.);
#340=ADVANCED_FACE('',(#309,#310),#115,.T.);
#341=ADVANCED_FACE('',(#311,#312),#107,.T.);
#342=ADVANCED_FACE('',(#313,#314),#116,.T.);
#343=ADVANCED_FACE('',(#315,#316),#108,.T.);
#344=ADVANCED_FACE('',(#317,#318),#556,.T.);
#345=ADVANCED_FACE('',(#319,#320),#117,.T.);
#346=ADVANCED_FACE('',(#321,#322),#557,.T.);
#347=ADVANCED_FACE('',(#323,#324),#109,.T.);
#348=AXIS2_PLACEMENT_3D('',#394,#463,#464);
#349=AXIS2_PLACEMENT_3D('',#395,#465,#466);
#350=AXIS2_PLACEMENT_3D('',#397,#467,#468);
#351=AXIS2_PLACEMENT_3D('',#399,#469,#470);
#352=AXIS2_PLACEMENT_3D('',#400,#471,#472);
#353=AXIS2_PLACEMENT_3D('',#402,#473,#474);
#354=AXIS2_PLACEMENT_3D('',#403,#475,#476);
#355=AXIS2_PLACEMENT_3D('',#405,#477,#478);
#356=AXIS2_PLACEMENT_3D('',#406,#479,#480);
#357=AXIS2_PLACEMENT_3D('',#408,#481,#482);
#358=AXIS2_PLACEMENT_3D('',#409,#483,#484);
#359=AXIS2_PLACEMENT_3D('',#411,#485,#486);
#360=AXIS2_PLACEMENT_3D('',#412,#487,#488);
#361=AXIS2_PLACEMENT_3D('',#414,#489,#490);
#362=AXIS2_PLACEMENT_3D('',#415,#491,#492);
#363=AXIS2_PLACEMENT_3D('',#417,#493,#494);
#364=AXIS2_PLACEMENT_3D('',#418,#495,#496);
#365=AXIS2_PLACEMENT_3D('',#420,#497,#498);
#366=AXIS2_PLACEMENT_3D('',#421,#499,#500);
#367=AXIS2_PLACEMENT_3D('',#423,#501,$);
#368=AXIS2_PLACEMENT_3D('',#424,#502,#503);
#369=AXIS2_PLACEMENT_3D('',#426,#504,#505);
#370=AXIS2_PLACEMENT_3D('',#427,#506,#507);
#371=AXIS2_PLACEMENT_3D('',#429,#508,$);
#372=AXIS2_PLACEMENT_3D('',#430,#509,#510);
#373=AXIS2_PLACEMENT_3D('',#432,#511,#512);
#374=AXIS2_PLACEMENT_3D('',#433,#513,#514);
#375=AXIS2_PLACEMENT_3D('',#435,#515,$);
#376=AXIS2_PLACEMENT_3D('',#436,#516,#517);
#377=AXIS2_PLACEMENT_3D('',#438,#518,#519);
#378=AXIS2_PLACEMENT_3D('',#439,#520,#521);
#379=AXIS2_PLACEMENT_3D('',#441,#522,#523);
#380=AXIS2_PLACEMENT_3D('',#442,#524,#525);
#381=AXIS2_PLACEMENT_3D('',#444,#526,$);
#382=AXIS2_PLACEMENT_3D('',#445,#527,#528);
#383=AXIS2_PLACEMENT_3D('',#447,#529,#530);
#384=AXIS2_PLACEMENT_3D('',#448,#531,#532);
#385=AXIS2_PLACEMENT_3D('',#450,#533,$);
#386=AXIS2_PLACEMENT_3D('',#451,#534,#535);
#387=AXIS2_PLACEMENT_3D('',#453,#536,#537);
#388=AXIS2_PLACEMENT_3D('',#454,#538,#539);
#389=AXIS2_PLACEMENT_3D('',#456,#540,#541);
#390=AXIS2_PLACEMENT_3D('',#457,#542,#543);
#391=AXIS2_PLACEMENT_3D('',#459,#544,#545);
#392=AXIS2_PLACEMENT_3D('',#460,#546,#547);
#393=AXIS2_PLACEMENT_3D('',#462,#548,$);
#394=CARTESIAN_POINT('',(0.,0.,-0.493301270189246));
#395=CARTESIAN_POINT('',(0.,0.,0.199999999999998));
#396=CARTESIAN_POINT('',(0.,-7.92226951545864,0.199999999999998));
#397=CARTESIAN_POINT('',(0.,0.,-0.586602540378489));
#398=CARTESIAN_POINT('',(0.,-7.7115,-0.586602540378489));
#399=CARTESIAN_POINT('',(0.,0.,-2.00000000000002));
#400=CARTESIAN_POINT('',(0.,0.,-3.41339745962156));
#401=CARTESIAN_POINT('',(0.,-7.7115,-3.41339745962156));
#402=CARTESIAN_POINT('',(0.,0.,-3.75));
#403=CARTESIAN_POINT('',(0.,0.,-4.));
#404=CARTESIAN_POINT('',(0.,-8.05017513459481,-4.));
#405=CARTESIAN_POINT('',(0.,0.,-4.54330127018922));
#406=CARTESIAN_POINT('',(0.,0.,-4.58660254037844));
#407=CARTESIAN_POINT('',(0.,-7.7115,-4.58660254037844));
#408=CARTESIAN_POINT('',(0.,0.,-6.5));
#409=CARTESIAN_POINT('',(0.,0.,-8.41339745962155));
#410=CARTESIAN_POINT('',(0.,-7.7115,-8.41339745962155));
#411=CARTESIAN_POINT('',(0.,0.,-8.75));
#412=CARTESIAN_POINT('',(0.,0.,-9.));
#413=CARTESIAN_POINT('',(0.,-8.05017513459481,-9.));
#414=CARTESIAN_POINT('',(0.,0.,-9.54330127018922));
#415=CARTESIAN_POINT('',(0.,0.,-9.58660254037844));
#416=CARTESIAN_POINT('',(0.,-7.7115,-9.58660254037844));
#417=CARTESIAN_POINT('',(0.,0.,-10.25));
#418=CARTESIAN_POINT('',(0.,0.,-10.9133974596215));
#419=CARTESIAN_POINT('',(0.,-7.7115,-10.9133974596215));
#420=CARTESIAN_POINT('',(0.,0.,-11.25));
#421=CARTESIAN_POINT('',(0.,0.,-11.4));
#422=CARTESIAN_POINT('',(0.,-7.84188475772932,-11.4));
#423=CARTESIAN_POINT('',(0.,-8.17669237886466,-11.4));
#424=CARTESIAN_POINT('',(0.,0.,-11.4));
#425=CARTESIAN_POINT('',(0.,-8.5115,-11.4));
#426=CARTESIAN_POINT('',(0.,0.,-11.9499999999995));
#427=CARTESIAN_POINT('',(0.,0.,-12.499999999999));
#428=CARTESIAN_POINT('',(0.,-8.5115,-12.499999999999));
#429=CARTESIAN_POINT('',(0.,-8.1365,-12.499999999999));
#430=CARTESIAN_POINT('',(0.,0.,-12.499999999999));
#431=CARTESIAN_POINT('',(0.,-7.7615,-12.499999999999));
#432=CARTESIAN_POINT('',(0.,0.,-12.749999999999));
#433=CARTESIAN_POINT('',(0.,0.,-12.999999999999));
#434=CARTESIAN_POINT('',(0.,-7.7615,-12.999999999999));
#435=CARTESIAN_POINT('',(0.,-8.39325,-12.999999999999));
#436=CARTESIAN_POINT('',(0.,0.,-12.999999999999));
#437=CARTESIAN_POINT('',(0.,-9.02500000000001,-12.999999999999));
#438=CARTESIAN_POINT('',(0.,0.,-12.899999999999));
#439=CARTESIAN_POINT('',(0.,0.,-12.799999999999));
#440=CARTESIAN_POINT('',(0.,-9.225,-12.799999999999));
#441=CARTESIAN_POINT('',(0.,0.,-8.15999999999898));
#442=CARTESIAN_POINT('',(0.,0.,-3.51999999999896));
#443=CARTESIAN_POINT('',(0.,-9.225,-3.51999999999896));
#444=CARTESIAN_POINT('',(0.,-9.2,-3.51999999999896));
#445=CARTESIAN_POINT('',(0.,0.,-3.51999999999896));
#446=CARTESIAN_POINT('',(0.,-9.17499999999999,-3.51999999999896));
#447=CARTESIAN_POINT('',(0.,0.,-3.26999999999896));
#448=CARTESIAN_POINT('',(0.,0.,-3.01999999999896));
#449=CARTESIAN_POINT('',(0.,-9.175,-3.01999999999896));
#450=CARTESIAN_POINT('',(0.,-9.25,-3.01999999999896));
#451=CARTESIAN_POINT('',(0.,0.,-3.01999999999896));
#452=CARTESIAN_POINT('',(0.,-9.325,-3.01999999999896));
#453=CARTESIAN_POINT('',(0.,0.,-2.96999999999896));
#454=CARTESIAN_POINT('',(0.,0.,-2.91999999999896));
#455=CARTESIAN_POINT('',(0.,-9.425,-2.91999999999896));
#456=CARTESIAN_POINT('',(0.,0.,-1.65999999999945));
#457=CARTESIAN_POINT('',(0.,0.,-0.399999999999931));
#458=CARTESIAN_POINT('',(0.,-9.425,-0.399999999999931));
#459=CARTESIAN_POINT('',(0.,0.,-0.0999999999999665));
#460=CARTESIAN_POINT('',(0.,0.,0.199999999999998));
#461=CARTESIAN_POINT('',(0.,-8.82500000000007,0.199999999999998));
#462=CARTESIAN_POINT('',(0.,-8.37363475772935,0.199999999999998));
#463=DIRECTION('',(0.,0.,1.));
#464=DIRECTION('',(0.,-7.7365,0.));
#465=DIRECTION('',(0.,0.,1.));
#466=DIRECTION('',(0.,-7.92226951545864,0.));
#467=DIRECTION('',(0.,0.,1.));
#468=DIRECTION('',(0.,-7.7115,0.));
#469=DIRECTION('',(0.,0.,1.));
#470=DIRECTION('',(0.,-7.7115,0.));
#471=DIRECTION('',(0.,0.,1.));
#472=DIRECTION('',(0.,-7.7115,0.));
#473=DIRECTION('',(0.,0.,-1.));
#474=DIRECTION('',(0.,-7.90583756729741,0.));
#475=DIRECTION('',(0.,0.,1.));
#476=DIRECTION('',(0.,-8.05017513459481,0.));
#477=DIRECTION('',(0.,0.,1.));
#478=DIRECTION('',(0.,-7.7365,0.));
#479=DIRECTION('',(0.,0.,1.));
#480=DIRECTION('',(0.,-7.7115,0.));
#481=DIRECTION('',(0.,0.,1.));
#482=DIRECTION('',(0.,-7.7115,0.));
#483=DIRECTION('',(0.,0.,1.));
#484=DIRECTION('',(0.,-7.7115,0.));
#485=DIRECTION('',(0.,0.,-1.));
#486=DIRECTION('',(0.,-7.90583756729741,0.));
#487=DIRECTION('',(0.,0.,1.));
#488=DIRECTION('',(0.,-8.05017513459481,0.));
#489=DIRECTION('',(0.,0.,1.));
#490=DIRECTION('',(0.,-7.7365,0.));
#491=DIRECTION('',(0.,0.,1.));
#492=DIRECTION('',(0.,-7.7115,0.));
#493=DIRECTION('',(0.,0.,1.));
#494=DIRECTION('',(0.,-7.7115,0.));
#495=DIRECTION('',(0.,0.,1.));
#496=DIRECTION('',(0.,-7.7115,0.));
#497=DIRECTION('',(0.,0.,-1.));
#498=DIRECTION('',(0.,-7.80169237886466,0.));
#499=DIRECTION('',(0.,0.,1.));
#500=DIRECTION('',(0.,-7.84188475772932,0.));
#501=DIRECTION('',(0.,0.,-1.));
#502=DIRECTION('',(0.,0.,1.));
#503=DIRECTION('',(0.,-8.5115,0.));
#504=DIRECTION('',(0.,0.,1.));
#505=DIRECTION('',(0.,-8.5115,0.));
#506=DIRECTION('',(0.,0.,1.));
#507=DIRECTION('',(0.,-8.5115,0.));
#508=DIRECTION('',(0.,2.368475785867E-15,1.));
#509=DIRECTION('',(0.,0.,1.));
#510=DIRECTION('',(0.,-7.7615,0.));
#511=DIRECTION('',(0.,0.,1.));
#512=DIRECTION('',(0.,-7.7615,0.));
#513=DIRECTION('',(0.,0.,1.));
#514=DIRECTION('',(0.,-7.7615,0.));
#515=DIRECTION('',(0.,2.95239363889235E-14,-1.));
#516=DIRECTION('',(0.,0.,1.));
#517=DIRECTION('',(0.,-9.02500000000001,0.));
#518=DIRECTION('',(0.,0.,1.));
#519=DIRECTION('',(0.,-9.125,0.));
#520=DIRECTION('',(0.,0.,1.));
#521=DIRECTION('',(0.,-9.225,0.));
#522=DIRECTION('',(0.,0.,1.));
#523=DIRECTION('',(0.,-9.225,0.));
#524=DIRECTION('',(0.,0.,1.));
#525=DIRECTION('',(0.,-9.225,0.));
#526=DIRECTION('',(0.,-8.88178419699955E-15,1.));
#527=DIRECTION('',(0.,0.,1.));
#528=DIRECTION('',(0.,-9.17499999999999,0.));
#529=DIRECTION('',(0.,0.,1.));
#530=DIRECTION('',(0.,-9.175,0.));
#531=DIRECTION('',(0.,0.,1.));
#532=DIRECTION('',(0.,-9.175,0.));
#533=DIRECTION('',(0.,0.,-1.));
#534=DIRECTION('',(0.,0.,1.));
#535=DIRECTION('',(0.,-9.325,0.));
#536=DIRECTION('',(0.,0.,1.));
#537=DIRECTION('',(0.,-9.375,0.));
#538=DIRECTION('',(0.,0.,1.));
#539=DIRECTION('',(0.,-9.425,0.));
#540=DIRECTION('',(0.,0.,1.));
#541=DIRECTION('',(0.,-9.425,0.));
#542=DIRECTION('',(0.,0.,1.));
#543=DIRECTION('',(0.,-9.425,0.));
#544=DIRECTION('',(0.,0.,-1.));
#545=DIRECTION('',(0.,-9.12500000000004,0.));
#546=DIRECTION('',(0.,0.,1.));
#547=DIRECTION('',(0.,-8.82500000000007,0.));
#548=DIRECTION('',(0.,-3.68954979466255E-16,1.));
#549=CONICAL_SURFACE('',#348,7.7365,0.26179938779909);
#550=CONICAL_SURFACE('',#353,7.90583756729741,0.523598775598302);
#551=CONICAL_SURFACE('',#355,7.7365,0.523598775598303);
#552=CONICAL_SURFACE('',#359,7.90583756729741,0.523598775598295);
#553=CONICAL_SURFACE('',#361,7.7365,0.523598775598315);
#554=CONICAL_SURFACE('',#365,7.80169237886466,0.261799387799093);
#555=CONICAL_SURFACE('',#377,9.125,0.785398163397426);
#556=CONICAL_SURFACE('',#387,9.375,0.785398163397455);
#557=CONICAL_SURFACE('',#391,9.12500000000004,0.785398163397449);
#558=CLOSED_SHELL('',(#325,#326,#327,#328,#329,#330,#331,#332,#333,#334,
#335,#336,#337,#338,#339,#340,#341,#342,#343,#344,#345,#346,#347));
#559=MANIFOLD_SOLID_BREP('',#558);
#560=ADVANCED_BREP_SHAPE_REPRESENTATION('',(#559),#103);
ENDSEC;
END-ISO-10303-21;
