ISO-10303-21;
HEADER;
/* Generated by software containing ST-Developer
 * from STEP Tools, Inc. (www.steptools.com) 
 */

FILE_DESCRIPTION(
/* description */ ('Alibre Inc.'),
/* implementation_level */ '2;1');

FILE_NAME(
/* name */ 'export-58A6A52D-611B-4831-8C28-A7806AC6FCD7',
/* time_stamp */ '2025-04-03T07:48:20+08:00',
/* author */ (''),
/* organization */ (''),
/* preprocessor_version */ 'ST-DEVELOPER v17',
/* originating_system */ 'Alibre',
/* authorisation */ '');

FILE_SCHEMA (('CONFIG_CONTROL_DESIGN'));
ENDSEC;

DATA;
#10=MECHANICAL_CONTEXT('detailed design',#18,'mechanical');
#11=PRODUCT_RELATED_PRODUCT_CATEGORY('detail','',(#98));
#12=CC_DESIGN_SECURITY_CLASSIFICATION(#14,(#97));
#13=SECURITY_CLASSIFICATION_LEVEL('unclassified');
#14=SECURITY_CLASSIFICATION('name','Security for version',#13);
#15=SHAPE_DEFINITION_REPRESENTATION(#16,#204);
#16=PRODUCT_DEFINITION_SHAPE('','DefinitionDesc',#96);
#17=APPLICATION_PROTOCOL_DEFINITION('AP definition status',
'config_control_design',1994,#18);
#18=APPLICATION_CONTEXT(
'control the configuration of three dimensional design');
#19=DESIGN_CONTEXT('detailed design',#18,'design');
#20=PERSON_AND_ORGANIZATION_ROLE('creator');
#21=PERSON_AND_ORGANIZATION_ROLE('classification_officer');
#22=PERSON_AND_ORGANIZATION_ROLE('creator');
#23=PERSON_AND_ORGANIZATION_ROLE('design_supplier');
#24=PERSON_AND_ORGANIZATION_ROLE('design_owner');
#25=CC_DESIGN_PERSON_AND_ORGANIZATION_ASSIGNMENT(#57,#20,(#96));
#26=CC_DESIGN_PERSON_AND_ORGANIZATION_ASSIGNMENT(#60,#21,(#14));
#27=CC_DESIGN_PERSON_AND_ORGANIZATION_ASSIGNMENT(#61,#22,(#97));
#28=CC_DESIGN_PERSON_AND_ORGANIZATION_ASSIGNMENT(#62,#23,(#97));
#29=CC_DESIGN_PERSON_AND_ORGANIZATION_ASSIGNMENT(#63,#24,(#98));
#30=DATE_TIME_ROLE('creation_date');
#31=DATE_TIME_ROLE('classification_date');
#32=CC_DESIGN_DATE_AND_TIME_ASSIGNMENT(#86,#30,(#96));
#33=CC_DESIGN_DATE_AND_TIME_ASSIGNMENT(#89,#31,(#14));
#34=CC_DESIGN_APPROVAL(#93,(#96));
#35=CC_DESIGN_APPROVAL(#94,(#97));
#36=CC_DESIGN_APPROVAL(#95,(#14));
#37=APPROVAL_PERSON_ORGANIZATION(#56,#93,#64);
#38=APPROVAL_PERSON_ORGANIZATION(#58,#94,#65);
#39=APPROVAL_PERSON_ORGANIZATION(#59,#95,#66);
#40=ORGANIZATION('DEFINITION_APPROVEDBY_ORG_ID',
'DEFINITION_APPROVEDBY_ORG_NAME','DEFINITION_APPROVEDBY_ORG_DESCR');
#41=ORGANIZATION('DEF_CREATOR_ORG_ID','DEF_CREATOR_ORG_NAME',
'DEF_CREATOR_ORG_DESCR');
#42=ORGANIZATION('APPROVEDBY_ORG_ID','APPROVEDBY_ORG_NAME',
'APPROVEDBY_ORG_DESCR');
#43=ORGANIZATION('SECURITY_APPROVEDBY_ORG_ID',
'SECURITY_APPROVEDBY_ORG_NAME','SECURITY_APPROVEDBY_ORG_DESCR');
#44=ORGANIZATION('CLASSOFFICER_ORG_ID','CLASSOFFICER_ORG_NAME',
'CLASSOFFICER_ORG_DESCR');
#45=ORGANIZATION('CREATOR_ORG_ID','CREATOR_ORG_NAME',
'CREATOR_ORG_DESCR');
#46=ORGANIZATION('SUPPLIER_ORG_ID','SUPPLIER_ORG_NAME',
'SUPPLIER_ORG_DESCR');
#47=ORGANIZATION('OWNER_ORG_ID','OWNER_ORG_NAME','OWNER_ORG_DESCR');
#48=PERSON('DEFINITION_approverID','DEFINITION_APPROVEDBY_LASTNAME',
'DEFINITION_APPROVEDBY_FIRSTNAME',$,$,$);
#49=PERSON('DEF_createrID','DEF_CREATOR_LASTNAME',
'DEF_CREATOR_FIRSTNAME',$,$,$);
#50=PERSON('approverID','APPROVEDBY_LASTNAME','APPROVEDBY_FIRSTNAME',$,
$,$);
#51=PERSON('SECURITY_approverID','SECURITY_LASTNAME',
'SECURITY_APPROVEDBY_FIRSTNAME',$,$,$);
#52=PERSON('classifierID','CLASSOFFICER_LASTNAME',
'CLASSOFFICER_FIRSTNAME',$,$,$);
#53=PERSON('createrID','CREATOR_LASTNAME','CREATOR_FIRSTNAME',$,$,$);
#54=PERSON('supplierID','SUPPLIER_LASTNAME','SUPPLIER_FIRSTNAME',$,$,$);
#55=PERSON('ownerID','OWNER_LASTNAME','OWNER_FIRSTNAME',$,$,$);
#56=PERSON_AND_ORGANIZATION(#48,#40);
#57=PERSON_AND_ORGANIZATION(#49,#41);
#58=PERSON_AND_ORGANIZATION(#50,#42);
#59=PERSON_AND_ORGANIZATION(#51,#43);
#60=PERSON_AND_ORGANIZATION(#52,#44);
#61=PERSON_AND_ORGANIZATION(#53,#45);
#62=PERSON_AND_ORGANIZATION(#54,#46);
#63=PERSON_AND_ORGANIZATION(#55,#47);
#64=APPROVAL_ROLE('definition_approval');
#65=APPROVAL_ROLE('version_approval');
#66=APPROVAL_ROLE('security_approval');
#67=APPROVAL_DATE_TIME(#85,#93);
#68=APPROVAL_DATE_TIME(#87,#94);
#69=APPROVAL_DATE_TIME(#88,#95);
#70=COORDINATED_UNIVERSAL_TIME_OFFSET(8,0,.AHEAD.);
#71=COORDINATED_UNIVERSAL_TIME_OFFSET(8,0,.AHEAD.);
#72=COORDINATED_UNIVERSAL_TIME_OFFSET(8,0,.AHEAD.);
#73=COORDINATED_UNIVERSAL_TIME_OFFSET(8,0,.AHEAD.);
#74=COORDINATED_UNIVERSAL_TIME_OFFSET(8,0,.AHEAD.);
#75=LOCAL_TIME(12,33,0.,#70);
#76=LOCAL_TIME(12,33,0.,#71);
#77=LOCAL_TIME(12,33,0.,#72);
#78=LOCAL_TIME(12,33,0.,#73);
#79=LOCAL_TIME(12,33,0.,#74);
#80=CALENDAR_DATE(2025,1,4);
#81=CALENDAR_DATE(2025,1,4);
#82=CALENDAR_DATE(2025,1,4);
#83=CALENDAR_DATE(2025,1,4);
#84=CALENDAR_DATE(2025,1,4);
#85=DATE_AND_TIME(#80,#75);
#86=DATE_AND_TIME(#81,#76);
#87=DATE_AND_TIME(#82,#77);
#88=DATE_AND_TIME(#83,#78);
#89=DATE_AND_TIME(#84,#79);
#90=APPROVAL_STATUS('not_yet_approved');
#91=APPROVAL_STATUS('not_yet_approved');
#92=APPROVAL_STATUS('not_yet_approved');
#93=APPROVAL(#90,'defintion approval');
#94=APPROVAL(#91,'version approval');
#95=APPROVAL(#92,'security approval');
#96=PRODUCT_DEFINITION('DefinitionID','DefinitionDesc',#97,#19);
#97=PRODUCT_DEFINITION_FORMATION_WITH_SPECIFIED_SOURCE(
'PRODUCT_VERSION_ID','PRODUCT_VERSION_DESCR',#98,.NOT_KNOWN.);
#98=PRODUCT('','EX3600 PTO Pin Bore Sleeve Part# YB600011503RM','',(#10));
#99=(
LENGTH_UNIT()
NAMED_UNIT(*)
SI_UNIT(.CENTI.,.METRE.)
);
#100=(
NAMED_UNIT(*)
PLANE_ANGLE_UNIT()
SI_UNIT($,.RADIAN.)
);
#101=(
NAMED_UNIT(*)
SI_UNIT($,.STERADIAN.)
SOLID_ANGLE_UNIT()
);
#102=UNCERTAINTY_MEASURE_WITH_UNIT(LENGTH_MEASURE(1.E-6),#99,
'DISTANCE_ACCURACY_VALUE',
'Maximum model space distance between geometric entities at asserted c
onnectivities');
#103=(
GEOMETRIC_REPRESENTATION_CONTEXT(3)
GLOBAL_UNCERTAINTY_ASSIGNED_CONTEXT((#102))
GLOBAL_UNIT_ASSIGNED_CONTEXT((#101,#100,#99))
REPRESENTATION_CONTEXT('ID1','3D')
);
#104=PLANE('',#163);
#105=PLANE('',#167);
#106=CYLINDRICAL_SURFACE('',#161,3.5075);
#107=CYLINDRICAL_SURFACE('',#165,3.15);
#108=VERTEX_POINT('',#170);
#109=VERTEX_POINT('',#172);
#110=VERTEX_POINT('',#175);
#111=VERTEX_POINT('',#178);
#112=VERTEX_POINT('',#181);
#113=CIRCLE('',#159,3.4425);
#114=CIRCLE('',#160,3.5075);
#115=CIRCLE('',#162,3.5075);
#116=CIRCLE('',#164,3.15);
#117=CIRCLE('',#166,3.15);
#118=EDGE_CURVE('',#108,#108,#113,.T.);
#119=EDGE_CURVE('',#109,#109,#114,.T.);
#120=EDGE_CURVE('',#110,#110,#115,.T.);
#121=EDGE_CURVE('',#111,#111,#116,.T.);
#122=EDGE_CURVE('',#112,#112,#117,.T.);
#123=ORIENTED_EDGE('',*,*,#118,.T.);
#124=ORIENTED_EDGE('',*,*,#119,.T.);
#125=ORIENTED_EDGE('',*,*,#120,.F.);
#126=ORIENTED_EDGE('',*,*,#119,.F.);
#127=ORIENTED_EDGE('',*,*,#121,.F.);
#128=ORIENTED_EDGE('',*,*,#118,.F.);
#129=ORIENTED_EDGE('',*,*,#121,.T.);
#130=ORIENTED_EDGE('',*,*,#122,.T.);
#131=ORIENTED_EDGE('',*,*,#122,.F.);
#132=ORIENTED_EDGE('',*,*,#120,.T.);
#133=EDGE_LOOP('',(#123));
#134=EDGE_LOOP('',(#124));
#135=EDGE_LOOP('',(#125));
#136=EDGE_LOOP('',(#126));
#137=EDGE_LOOP('',(#127));
#138=EDGE_LOOP('',(#128));
#139=EDGE_LOOP('',(#129));
#140=EDGE_LOOP('',(#130));
#141=EDGE_LOOP('',(#131));
#142=EDGE_LOOP('',(#132));
#143=FACE_BOUND('',#133,.T.);
#144=FACE_BOUND('',#134,.T.);
#145=FACE_BOUND('',#135,.T.);
#146=FACE_BOUND('',#136,.T.);
#147=FACE_BOUND('',#137,.T.);
#148=FACE_BOUND('',#138,.T.);
#149=FACE_BOUND('',#139,.T.);
#150=FACE_BOUND('',#140,.T.);
#151=FACE_BOUND('',#141,.T.);
#152=FACE_BOUND('',#142,.T.);
#153=ADVANCED_FACE('',(#143,#144),#201,.T.);
#154=ADVANCED_FACE('',(#145,#146),#106,.T.);
#155=ADVANCED_FACE('',(#147,#148),#104,.F.);
#156=ADVANCED_FACE('',(#149,#150),#107,.F.);
#157=ADVANCED_FACE('',(#151,#152),#105,.T.);
#158=AXIS2_PLACEMENT_3D('',#168,#183,#184);
#159=AXIS2_PLACEMENT_3D('',#169,#185,#186);
#160=AXIS2_PLACEMENT_3D('',#171,#187,#188);
#161=AXIS2_PLACEMENT_3D('',#173,#189,#190);
#162=AXIS2_PLACEMENT_3D('',#174,#191,#192);
#163=AXIS2_PLACEMENT_3D('',#176,#193,$);
#164=AXIS2_PLACEMENT_3D('',#177,#194,#195);
#165=AXIS2_PLACEMENT_3D('',#179,#196,#197);
#166=AXIS2_PLACEMENT_3D('',#180,#198,#199);
#167=AXIS2_PLACEMENT_3D('',#182,#200,$);
#168=CARTESIAN_POINT('',(0.,0.,-4.9));
#169=CARTESIAN_POINT('',(0.,0.,-4.9));
#170=CARTESIAN_POINT('',(3.4425,4.21584660606476E-16,-4.9));
#171=CARTESIAN_POINT('',(0.,0.,-4.835));
#172=CARTESIAN_POINT('',(3.5075,-4.29544864800934E-16,-4.835));
#173=CARTESIAN_POINT('',(0.,0.,0.));
#174=CARTESIAN_POINT('',(0.,0.,0.));
#175=CARTESIAN_POINT('',(3.5075,0.,0.));
#176=CARTESIAN_POINT('',(0.,0.,-4.9));
#177=CARTESIAN_POINT('',(0.,0.,-4.9));
#178=CARTESIAN_POINT('',(3.15,0.,-4.9));
#179=CARTESIAN_POINT('',(0.,0.,0.));
#180=CARTESIAN_POINT('',(0.,0.,0.));
#181=CARTESIAN_POINT('',(3.15,0.,0.));
#182=CARTESIAN_POINT('',(0.,0.,0.));
#183=DIRECTION('',(0.,0.,1.));
#184=DIRECTION('',(-3.4425,0.,0.));
#185=DIRECTION('',(0.,0.,1.));
#186=DIRECTION('',(-3.4425,0.,0.));
#187=DIRECTION('',(0.,0.,-1.));
#188=DIRECTION('',(-3.5075,0.,0.));
#189=DIRECTION('',(0.,0.,-1.));
#190=DIRECTION('',(3.5075,0.,0.));
#191=DIRECTION('',(0.,0.,1.));
#192=DIRECTION('',(3.5075,0.,0.));
#193=DIRECTION('',(0.,0.,1.));
#194=DIRECTION('',(0.,0.,-1.));
#195=DIRECTION('',(3.15,0.,0.));
#196=DIRECTION('',(0.,0.,-1.));
#197=DIRECTION('',(3.15,0.,0.));
#198=DIRECTION('',(0.,0.,1.));
#199=DIRECTION('',(3.15,0.,0.));
#200=DIRECTION('',(0.,0.,1.));
#201=CONICAL_SURFACE('',#158,3.4425,0.785398163397448);
#202=CLOSED_SHELL('',(#153,#154,#155,#156,#157));
#203=MANIFOLD_SOLID_BREP('',#202);
#204=ADVANCED_BREP_SHAPE_REPRESENTATION('',(#203),#103);
ENDSEC;
END-ISO-10303-21;
